» » »

Soen - Fraccions Tabs

Artists:  A B C D E F G H I J K L M N O P Q R S T U V W X Y Z # 

Fraccions Tabs

(ver. 1) Click to play this song!
Soen
 Rating:
4.3/5 (29 votes)

 Fraccions  lessons Tabs too difficult? Try these video lessons and learn fast
 
                
D|--------------------------------------------------------|
A|--------------------------------------------------------|
F|--------------------------------------------------------|
C|----7-----10-----9----7--------7-----10-----9----7------|
G|-0---6-0-----0-----0--------0---6-0-----0-----0---------|
C|--------------------------------------------------------|

D|--------------------------------------------------------|
A|--------------------------------------------------------|
F|--------------------------------------------------------|
C|----7-----12-----9----10-------7------9-----9----7------|
G|-0---6-0-----0-----0--------0---6-0-----0-----0---------|
C|--------------------------------------------------------|

---                         x2                          ---

[Verse]
---Palm muting throughout the whole verse---
D|--------------------------------------|
A|--------------------------------------|
F|--------------------------------------|
C|---7-10---9*3----7-----10---9*3-----5-|
G|-0------0-----0-----0-----0-----0-----|
C|--------------------------------------|

D|-------------------------------------------|\
A|-------------------------------------------| \
F|-------------------------------------------|   repeat this part 11 times,
C|----7-----10---9*3----7-----10---9*3-----5-|   gradually release PM after 8th time.
G|-0-----0-----0-----0-----0-----0-----0-----| /
C|-------------------------------------------|/

[Bridge]
D|------------------------------------------------------------------|
A|------------------------------------------------------------------|
F|------------------------------------------------------------------|
C|----12----9----10*3---12----9----10*3---10----10----9----777----7-|
G|-0-----8-----8-----8-----8-----8-----8-----8-----0-----0-----0----|
C|------------------------------------------------------------------|

D|------------------------------------------------------------------|
A|------------------------------------------------------------------|
F|------------------------------------------------------------------|
C|----12----9----10*3---12----9----10*3---10----10----9----777~~~~~-|
G|-0-----8-----8-----8-----8-----8-----8-----8-----0-----0----------|
C|------------------------------------------------------------------|

[Chorus]
D|---------------------------------------------------------------------------------------|
A|---------------------------------------------------------------------------------------|\
F|---------------------8--------------------------8-(8)(8)-7----7--5---------------------| \
C|-8--7--7-/12---9--10-x--10-9--9-/12(9)(9)(9)(9)-x--x--x--x----x--x----10-10-9-/12-7--7-|  x2
G|-0--0--0--0----0--0--0--0--0--0--0--0--0--0--0--0--0--0--0----0--0----0--0--0--0--0--0-| /
C|---------------------------------------------------------------------------------------|/



D|---------------------------------------------------------------------------------------|
A|---------------------------------------------------------------------------------------|\
F|-------------------8----------------------------8-(8)(8)-7----7--5---------------------| \
C|-/9--12-7--7----7--x--10---9--9-/12(9)(9)(9)(9)-x--x--x--x----x--x----10-10-9-/12-7--7-|  x2
G|--0--0--0--0----0--0--0----0--0--0--0--0--0--0--0--0--0--0----0--0----0--0--0--0--0--0-| /
C|---------------------------------------------------------------------------------------|/

----                                       x2                                         ----

[Verse 2]
---Palm muting throughout the whole verse. and note that the 9 is triplets---
D|--------------------------------------|
A|--------------------------------------|
F|--------------------------------------|
C|---7-10---9*3----7-----10---9*3-----5-|
G|-0------0-----0-----0-----0-----0-----|
C|--------------------------------------|

D|-------------------------------------------|\
A|-------------------------------------------| \
F|-------------------------------------------|   repeat this part 7 times,
C|----7-----10---9*3----7-----10---9*3-----5-|   gradually release PM after 3th time.
G|-0-----0-----0-----0-----0-----0-----0-----| /
C|-------------------------------------------|/

[Bridge]
D|------------------------------------------------------------------|
A|------------------------------------------------------------------|
F|------------------------------------------------------------------|
C|----12----9----10*3---12----9----10*3---10----10----9----777----7-|
G|-0-----8-----8-----8-----8-----8-----8-----8-----0-----0-----0----|
C|------------------------------------------------------------------|

D|------------------------------------------------------------------|
A|------------------------------------------------------------------|
F|------------------------------------------------------------------|
C|----12----9----10*3---12----9----10*3---10----10----9----777~~~~~-|
G|-0-----8-----8-----8-----8-----8-----8-----8-----0-----0----------|
C|------------------------------------------------------------------|

[Instrumental]
D|--------------------------------------------------------|\
A|--------------------------------------------------------| \
F|--------------------------------------------------------|  \
C|----7-----10-----9----7--------7-----10-----9----7------|   \
G|-0---6-0-----0-----0--------0---6-0-----0-----0---------|    \
C|--------------------------------------------------------|     \
                                                                 x2
D|--------------------------------------------------------|     /
A|--------------------------------------------------------|    /
F|--------------------------------------------------------|   /
C|----7-----12-----9----10-------7------9-----9----7------|  / 
G|-0---6-0-----0-----0--------0---6-0-----0-----0---------| /
C|--------------------------------------------------------|/

[C part]
D|-----------------------------------------------------------------------|
A|-----------------------------------------------------------------------|
F|-----------------------------------------------------------------------|
C|-----------------------------------------------------------------------|
G|-----------------------------------------------------------------------|
C|-----------------------------------------------------------------------|
  i have more than you...      i have more than you,    i- 

D|-----------------------------------------------------------------------|
A|-----------------------------------------------------------------------|\
F|-----------------------------------------------------------------------| \
C|-2*4--x--2--x--2--x--2--x--x--2*4-----2*4--x--2--x--2--x--2--x--x--2*4-|  x2
G|-2*4--x--2--x--2--x--2--x--x--2*4-----2*4--x--2--x--2--x--2--x--x--2*4-| /
C|-2*4--x--2--x--2--x--2--x--x--2*4-----2*4--x--2--x--2--x--2--x--x--2*4-|/
   have more than you..

       M----       M------       M----------------         M----       M--------
D|-------------------------------------------------------------------------------------------------|
A|-------------------------------------------------------------------------------------------------|
F|-------------------------------------------------------------------------------------------------|
C|-5---5---5---5---5---5*3---5*3-5-5-5-5*3-5-5-5-5-5---5---5---5---5---5*3---5*3-5-5-5-5*3-5-5-5-5-|
G|-3---3---3---3---3---3*3---3*3-3-3-3-3*3-3-3-3-3-3---3---3---3---3---3*3---3*3-3-3-3-3*3-3-3-3-3-|
C|-------------------------------------------------------------------------------------------------|
 
**Mute here is just barely enough to make the note not ring

D|-----------------------------------------------------------------------|
A|-----------------------------------------------------------------------|
F|-----------------------------------------------------------------------|
C|-2*4--x--2--x--2--x--2--x--x--2*4-----2*4--x--2--x--2--x--2--x--x--2*4-| 
G|-2*4--x--2--x--2--x--2--x--x--2*4-----2*4--x--2--x--2--x--2--x--x--2*4-|
C|-2*4--x--2--x--2--x--2--x--x--2*4-----2*4--x--2--x--2--x--2--x--x--2*4-|

       M----       M------       M----------------         M----       M--------
D|-------------------------------------------------------------------------------------------------|
A|-------------------------------------------------------------------------------------------------|
F|-------------------------------------------------------------------------------------------------|
C|-5---5---5---5---5---5*3---5*3-5-5-5-5*3-5-5-5-5-5---5---5---5---5---5*3---5*3-5-5-5-5*3-5-5-5-5-|
G|-3---3---3---3---3---3*3---3*3-3-3-3-3*3-3-3-3-3-3---3---3---3---3---3*3---3*3-3-3-3-3*3-3-3-3-3-|
C|-------------------------------------------------------------------------------------------------|

**Mute here is just barely enough to make the note not ring 
                   M      
D|-----------------------------------------------------------------------|
A|-----------------------------------------------------------------------|
F|-----------------------------------------------------------------------|
C|-----------------------------------------------------------------------|
G|-2--2----2----10-10-10-10-10---3--10----0----0----0--------------------|
C|-2--2----2----8--8--8--8--8----3--10----0----0----0--------------------|


            
Submit corrections


        Fraccions  lessons Hard to play? Try these video lessons and learn fast Fraccions  lessons
        
↑ Back to top | Tablatures and chords for acoustic guitar and electric guitar, ukulele, drums are parodies/interpretations of the original songs. You may use it for private study, scholarship, research or language learning purposes only