Home » S » Soellner Hans »

Soellner Hans - Manchmal Wenn I Aufwach Tabs

Artists:  A B C D E F G H I J K L M N O P Q R S T U V W X Y Z # 

Manchmal Wenn I Aufwach Tabs

(ver. 1) Click to play this song!
Soellner Hans
Dies ist die Fassung der Live-Version, aber die Studioversion müsste eigentlich die gleiche sein !?

Intro
-----------0----------------0---------------2---------------3-----------
---------1---1------------1---1-----------3---3-----------3---3---------
-------0-------0--------2-------2-------2-------2-------0-------0-------
-----------------2----------------2---0-----------0---------------0-----
---3-----------------0--------------------------------------------------
------------------------------------------------------3-----------------

-----------0----------------0---------------2---------------3-----------
---------1---1------------1---1-----------3---3-----------3---3---------
-------0-------0--------2-------2-------2-------2-------0-------0-------
-----------------2----------------2---0-----------0---------------0-----
---3-----------------0--------------------------------------------------
------------------------------------------------------3-----------------

---------1---------------0---------------0-------1-----3-------0--------
-------1---1-----------1---1-----------1-------1-----3--------1---1-----
-----2-------2-------0-------0-------2-------2-----0--------0-------0---
---------------3---------------2--------------------------------------2-
-------------------3---------------0----------------------3-------------
---1----------------------------------------1-----3---------------------

Verse
-----------0----------------0---------------2---------------3-----------
---------1---1------------1---1-----------3---3-----------3---3---------
-------0-------0--------2-------2-------2-------2-------0-------0-------
-----------------2----------------2---0-----------0---------------0-----
---3-----------------0--------------------------------------------------
------------------------------------------------------3-----------------

---------1---------------0---------------0-------1-----3-------0--------
-------1---1-----------1---1-----------1-------1-----3--------1---1-----
-----2-------2-------0-------0-------2-------2-----0--------0-------0---
---------------3---------------2--------------------------------------2-
-------------------3---------------0----------------------3-------------
---1----------------------------------------1-----3---------------------

Bridge
---------3---------------0---------------0---------------2---------3---
-------3---3-----------1---1-----------1---1-----------3---------3-----
-----0-------0-------0-------0-------2-------2-------2---------0-------
---------------0---------------2---------------2---0-------------------
-------------------3---------------0-----------------------------------
---3---------------------------------------------------------3---------

---------1---------------0---------------0--------1--------3----------
-------1---1-----------1---1-----------1--------1--------3------------
-----2-------2-------0-------0-------2--------2--------0--------------
---------------3---------------2--------------------------------------
-------------------3---------------0----------------------------------
---1----------------------------------------1--------3----------------

---------0-------------0---------------1--------3-----
-------1---1---------1---1-----------1---------3------
-----0-------0-----2-------2-------2----------3-------
-----------------------------2--------------0---------
---3-------------0------------------------------------
---------------------------------1--------3-----------

Des wars, i glab `s is richtig so!
            
Submit corrections

↑ Back to top | Tablatures and chords for acoustic guitar and electric guitar, ukulele, drums are parodies/interpretations of the original songs. You may use it for private study, scholarship, research or language learning purposes only