» » »

Sods - Walking On Red Tabs

Artists:  A B C D E F G H I J K L M N O P Q R S T U V W X Y Z # 

Walking On Red Tabs

(ver. 1) Click to play this song!
Sods
 Rating:
2.1/5 (28 votes)

 Walking On Red  lessons Tabs too difficult? Try these video lessons and learn fast
 
                INTRO:
 Guitar L
eb|------------------------------------------------------------------------------------------------|
Bb|------------------------------------------------------------------------------------------------|
Gb|------------------------------------------------------------------------------------------------|
Db|------------------------------------------------------------------------------------------------|
Ab|------------------------------------------------------------------------------------------------|
Eb|------------------------------------------------------------------------------------------------|
+
eb|------------------------------------------------------------------------------------------------||
Bb|------------------------------------------------------------------------------------------------||
Gb|-------------------------------------------------------------------------11--(b12)---11---------|| x 3
Db|-0-----0-----9-----9-----12----12----9-----9-----0-----0-----9-----9----------------------------||
Ab|------------------------------------------------------------------------------------------------||
Eb|------------------------------------------------------------------------------------------------||
|                                                                                                  |
|                                                                                                  |
|Guitar R                                                                                          |
eb|------------------------------------------------------------------------------------------------|
Bb|------------------------------------------------------------------------------------------------|
Gb|------------------------------------------------------------------------------------------------|
Db|------------------------------------------------------------------------------------------------|
Ab|------------------------------------------------------------------------------------------------|
Eb|------------------------------------------------------------------------------------------------|
+
eb|------------------------------------------------------------------------------------------------||
Bb|------------------------------------------------------------------------------------------------||
Gb|-------------------------------------------------------------------------11--(b12)---11---------|| x 3
Db|-0-----0-----9-----9-----12----12----9-----9-----0-----0-----9-----9----------------------------||
Ab|------------------------------------------------------------------------------------------------||
Eb|------------------------------------------------------------------------------------------------||



VERSE I:
 Guitar L
eb|------------------------------------------------------------------------------------------------||
Bb|------------------------------------------------------------------------------------------------||
Gb|-------------------------------------------------------------------------11--(b12)---11---------|| x 4
Db|-0-----0-----9-----9-----12----12----9-----9-----0-----0-----9-----9----------------------------||
Ab|------------------------------------------------------------------------------------------------||
Eb|------------------------------------------------------------------------------------------------||
|                                                                                                  |
|                                                                                                  |
|Guitar R                                                                                          |
eb|------------------------------------------------------------------------------------------------||
Bb|------------------------------------------------------------------------------------------------||
Gb|-------------------------------------------------------------------------11--(b12)---11---------|| x 4
Db|-0-----0-----9-----9-----12----12----9-----9-----0-----0-----9-----9----------------------------||
Ab|------------------------------------------------------------------------------------------------||
Eb|------------------------------------------------------------------------------------------------||



INTERLUDE A I:
 Guitar L
eb|------------------------------------------------------------------------------------------------|
Bb|-------10----------9-----------10----------9-----------10----------9-----------10---------------|
Gb|-10----------9-----------10----------9-----------10----------9-----------10----------9-----/----|
Db|------------------------------------------------------------------------------------------------|
Ab|------------------------------------------------------------------------------------------------|
Eb|------------------------------------------------------------------------------------------------|
+
eb|------------------------------------------------------------------------------------------------|
Bb|-------------------15----------15----15----15----15----15---------------------------------------|
Gb|-------------14----------------------------------------------14---------------------------------|
Db|-12----12----------------------------------------------------------12----------12----12----12---|
Ab|------------------------------------------------------------------------------------------------|
Eb|------------------------------------------------------------------------------------------------|
+
eb|------------------------------------------------------------------------------------------------|
Bb|-------10----------9-----------10----------9-----------10----------9-----------10---------------|
Gb|-10----------9-----------10----------9-----------10----------9-----------10----------9-----/----|
Db|------------------------------------------------------------------------------------------------|
Ab|------------------------------------------------------------------------------------------------|
Eb|------------------------------------------------------------------------------------------------|
+
eb|-------------------------------------------------14----14----13---------------------------------|
Bb|-------------------15----------15----15----15----------------------15----------15----15----15---|
Gb|-------------14---------------------------------------------------------------------------------|
Db|-12----12---------------------------------------------------------------------------------------|
Ab|------------------------------------------------------------------------------------------------|
Eb|------------------------------------------------------------------------------------------------|
|                                                                                                  |
|                                                                                                  |
|Guitar R                                                                                          |
eb|------------------------------------------------------------------------------------------------|
Bb|-------10----------9-----------10----------9-----------10----------9-----------10---------------|
Gb|-10----------9-----------10----------9-----------10----------9-----------10----------9-----/----|
Db|------------------------------------------------------------------------------------------------|
Ab|------------------------------------------------------------------------------------------------|
Eb|------------------------------------------------------------------------------------------------|
+
eb|-------------------------------------------------14----14----13---------------------------------|
Bb|-------------------15----------15----15----15----------------------15----------15----15----15---|
Gb|-------------14---------------------------------------------------------------------------------|
Db|-12----12---------------------------------------------------------------------------------------|
Ab|------------------------------------------------------------------------------------------------|
Eb|------------------------------------------------------------------------------------------------|
+
eb|------------------------------------------------------------------------------------------------|
Bb|-------10----------9-----------10----------9-----------10----------9-----------10---------------|
Gb|-10----------9-----------10----------9-----------10----------9-----------10----------9-----/----|
Db|------------------------------------------------------------------------------------------------|
Ab|------------------------------------------------------------------------------------------------|
Eb|------------------------------------------------------------------------------------------------|
+
eb|------------------------------------------------------------------------------------------------|
Bb|-------------------15----------15----15----15----15----15---------------------------------------|
Gb|-------------14----------------------------------------------14---------------------------------|
Db|-12----12----------------------------------------------------------12----------12----12----12---|
Ab|------------------------------------------------------------------------------------------------|
Eb|------------------------------------------------------------------------------------------------|



CHORUS:
 Guitar L
eb|------------------------------------------------------------------------------------------------||
Bb|------------------------------------------------------------------------------------------------||
Gb|-------------------------------------------------------------------------11--(b12)---11---------|| x 4
Db|-0-----0-----9-----9-----12----12----9-----9-----0-----0-----9-----9----------------------------||
Ab|------------------------------------------------------------------------------------------------||
Eb|------------------------------------------------------------------------------------------------||
|                                                                                                  |
|                                                                                                  |
|Guitar R                                                                                          |
eb|------------------------------------------------------------------------------------------------||
Bb|------------------------------------------------------------------------------------------------||
Gb|-------------------------------------------------------------------------11--(b12)---11---------|| x 4
Db|-0-----0-----9-----9-----12----12----9-----9-----0-----0-----9-----9----------------------------||
Ab|------------------------------------------------------------------------------------------------||
Eb|------------------------------------------------------------------------------------------------||



INTERLUDE A II:
 Guitar L
eb|------------------------------------------------------------------------------------------------|
Bb|-------10----------9-----------10----------9-----------10----------9-----------10---------------|
Gb|-10----------9-----------10----------9-----------10----------9-----------10----------9-----/----|
Db|------------------------------------------------------------------------------------------------|
Ab|------------------------------------------------------------------------------------------------|
Eb|------------------------------------------------------------------------------------------------|
+
eb|-------------------------------------------------14----14----13---------------------------------|
Bb|-------------------15----------15----15----15----------------------15----------15----15----15---|
Gb|-------------14---------------------------------------------------------------------------------|
Db|-12----12---------------------------------------------------------------------------------------|
Ab|------------------------------------------------------------------------------------------------|
Eb|------------------------------------------------------------------------------------------------|
+
eb|------------------------------------------------------------------------------------------------|
Bb|-------10----------9-----------10----------9-----------10----------9-----------10---------------|
Gb|-10----------9-----------10----------9-----------10----------9-----------10----------9-----/----|
Db|------------------------------------------------------------------------------------------------|
Ab|------------------------------------------------------------------------------------------------|
Eb|------------------------------------------------------------------------------------------------|
+
eb|------------------------------------------------------------------------------------------------|
Bb|-------------------15----------15----15----15----15----15---------------------------------------|
Gb|-------------14----------------------------------------------14---------------------------------|
Db|-12----12----------------------------------------------------------12----------12----12----12---|
Ab|------------------------------------------------------------------------------------------------|
Eb|------------------------------------------------------------------------------------------------|
+
eb|------------------------------------------------------------------------------------------------||
Bb|------------------------------------------------------------------------------------------------||
Gb|-------------------------------------------------------------------------11--(b12)---11---------|| x 2
Db|-0-----0-----9-----9-----12----12----9-----9-----0-----0-----9-----9----------------------------||
Ab|------------------------------------------------------------------------------------------------||
Eb|------------------------------------------------------------------------------------------------||
|                                                                                                  |
|                                                                                                  |
|Guitar R                                                                                          |
eb|------------------------------------------------------------------------------------------------|
Bb|-------10----------9-----------10----------9-----------10----------9-----------10---------------|
Gb|-10----------9-----------10----------9-----------10----------9-----------10----------9-----/----|
Db|------------------------------------------------------------------------------------------------|
Ab|------------------------------------------------------------------------------------------------|
Eb|------------------------------------------------------------------------------------------------|
+
eb|-------------------------------------------------14----14----13---------------------------------|
Bb|-------------------15----------15----15----15----------------------15----------15----15----15---|
Gb|-------------14---------------------------------------------------------------------------------|
Db|-12----12---------------------------------------------------------------------------------------|
Ab|------------------------------------------------------------------------------------------------|
Eb|------------------------------------------------------------------------------------------------|
+
eb|------------------------------------------------------------------------------------------------|
Bb|-------10----------9-----------10----------9-----------10----------9-----------10---------------|
Gb|-10----------9-----------10----------9-----------10----------9-----------10----------9-----/----|
Db|------------------------------------------------------------------------------------------------|
Ab|------------------------------------------------------------------------------------------------|
Eb|------------------------------------------------------------------------------------------------|
+
eb|------------------------------------------------------------------------------------------------|
Bb|-------------------15----------15----15----15----------------------15----------------15----15---|
Gb|-------------14----------------------------------------------14---------------------------------|
Db|-12----12----------------------------------------12----12---------------------------------------|
Ab|------------------------------------------------------------------------------------------------|
Eb|------------------------------------------------------------------------------------------------|
+
eb|------------------------------------------------------------------------------------------------||
Bb|------------------------------------------------------------------------------------------------||
Gb|-------------------------------------------------------------------------11--(b12)---11---------|| x 2
Db|-0-----0-----9-----9-----12----12----9-----9-----0-----0-----9-----9----------------------------||
Ab|------------------------------------------------------------------------------------------------||
Eb|------------------------------------------------------------------------------------------------||



VERSE II:
 Guitar L
eb|------------------------------------------------------------------------------------------------||
Bb|------------------------------------------------------------------------------------------------||
Gb|-------------------------------------------------------------------------11--(b12)---11---------|| x 4
Db|-0-----0-----9-----9-----12----12----9-----9-----0-----0-----9-----9----------------------------||
Ab|------------------------------------------------------------------------------------------------||
Eb|------------------------------------------------------------------------------------------------||
|                                                                                                  |
|                                                                                                  |
|Guitar R                                                                                          |
eb|------------------------------------------------------------------------------------------------||
Bb|------------------------------------------------------------------------------------------------||
Gb|-------------------------------------------------------------------------11--(b12)---11---------|| x 2
Db|-0-----0-----9-----9-----12----12----9-----9-----0-----0-----9-----9----------------------------||
Ab|------------------------------------------------------------------------------------------------||
Eb|------------------------------------------------------------------------------------------------||
+
eb|------------------------------------------------------------------------------------------------|
Bb|------------------------------------------------------------------------------------------------|
Gb|-------------------------------------------------------------------------11--(b12)---11---------|
Db|-0-----0-----9-----9-----11----11----9-----9-----0-----0-----9-----9----------------------------|
Ab|------------------------------------------------------------------------------------------------|
Eb|------------------------------------------------------------------------------------------------|
+
eb|------------------------------------------------------------------------------------------------|
Bb|------------------------------------------------------------------------------------------------|
Gb|-------------------------------------------------------------------------11--(b12)---11---------|
Db|-0-----0-----9-----9-----12----12----9-----9-----0-----0-----9-----9----------------------------|
Ab|------------------------------------------------------------------------------------------------|
Eb|------------------------------------------------------------------------------------------------|



INTERLUDE B I:
 Guitar L
eb|------------------------------------------------------------------------------------------------||
Bb|------------------------------------------------------------------------------------------------||
Gb|-------------------------14----14----14----14----------------------------14----14----14----14---|| x 2
Db|-0-----0-----9----/12----------------------------0-----0-----9----/12---------------------------||
Ab|------------------------------------------------------------------------------------------------||
Eb|------------------------------------------------------------------------------------------------||
+
eb|------------------------------------------------------------------------------------------------||
Bb|------------------------------------------------------------------------------------------------||
Gb|-------------------------------------------------------------------------11--(b12)---11---------|| x 2
Db|-0-----0-----9-----9-----12----12----9-----9-----0-----0-----9-----9----------------------------||
Ab|------------------------------------------------------------------------------------------------||
Eb|------------------------------------------------------------------------------------------------||
|                                                                                                  |
|                                                                                                  |
|Guitar R                                                                                          |
eb|------------------------------------------------------------------------------------------------||
Bb|-------------------------12----12----12----12----------------------------12----12----12----12---||
Gb|------------------------------------------------------------------------------------------------|| x 2
Db|-0-----0-----9----/12----------------------------0-----0-----9----/12---------------------------||
Ab|------------------------------------------------------------------------------------------------||
Eb|------------------------------------------------------------------------------------------------||
+
eb|------------------------------------------------------------------------------------------------||
Bb|------------------------------------------------------------------------------------------------||
Gb|-------------------------------------------------------------------------11--(b12)---11---------|| x 2
Db|-0-----0-----9-----9-----12----12----9-----9-----0-----0-----9-----9----------------------------||
Ab|------------------------------------------------------------------------------------------------||
Eb|------------------------------------------------------------------------------------------------||



INTERLUDE A III:
 Guitar L
eb|------------------------------------------------------------------------------------------------|
Bb|-------10----------9-----------10----------9-----------10----------9-----------10---------------|
Gb|-10----------9-----------10----------9-----------10----------9-----------10----------9-----/----|
Db|------------------------------------------------------------------------------------------------|
Ab|------------------------------------------------------------------------------------------------|
Eb|------------------------------------------------------------------------------------------------|
+
eb|------------------------------------------------------------------------------------------------|
Bb|-------------------15----------15----15----15----15----15---------------------------------------|
Gb|-------------14----------------------------------------------14---------------------------------|
Db|-12----12----------------------------------------------------------12----------12----12\--------|
Ab|------------------------------------------------------------------------------------------------|
Eb|------------------------------------------------------------------------------------------------|
+
eb|------------------------------------------------------------------------------------------------|
Bb|-------10----------9-----------10----------9-----------10----------9-----------10---------------|
Gb|-10----------9-----------10----------9-----------10----------9-----------10----------9-----/----|
Db|------------------------------------------------------------------------------------------------|
Ab|------------------------------------------------------------------------------------------------|
Eb|------------------------------------------------------------------------------------------------|
+
eb|-------------------------------------------------14----14----13---------------------------------|
Bb|-------------------15----------15----15----15----------------------15----------15----15----15---|
Gb|-------------14---------------------------------------------------------------------------------|
Db|-12----12---------------------------------------------------------------------------------------|
Ab|------------------------------------------------------------------------------------------------|
Eb|------------------------------------------------------------------------------------------------|
+
eb|------------------------------------------------------------------------------------------------||
Bb|------------------------------------------------------------------------------------------------||
Gb|-------------------------------------------------------------------------11--(b12)---11---------|| x 2
Db|-0-----0-----9-----9-----12----12----9-----9-----0-----0-----9-----9----------------------------||
Ab|------------------------------------------------------------------------------------------------||
Eb|------------------------------------------------------------------------------------------------||
|                                                                                                  |
|                                                                                                  |
|Guitar R                                                                                          |
eb|------------------------------------------------------------------------------------------------|
Bb|-------10----------9-----------10----------9-----------10----------9-----------10---------------|
Gb|-10----------9-----------10----------9-----------10----------9-----------10----------9-----/----|
Db|------------------------------------------------------------------------------------------------|
Ab|------------------------------------------------------------------------------------------------|
Eb|------------------------------------------------------------------------------------------------|
+
eb|------------------------------------------------------------------------------------------------|
Bb|-------------------15----------15----15----15----15----15---------------------------------------|
Gb|-------------14----------------------------------------------14---------------------------------|
Db|-12----12----------------------------------------------------------12----------12----12\--------|
Ab|------------------------------------------------------------------------------------------------|
Eb|------------------------------------------------------------------------------------------------|
+
eb|------------------------------------------------------------------------------------------------|
Bb|-------10----------9-----------10----------9-----------10----------9-----------10---------------|
Gb|-10----------9-----------10----------9-----------10----------9-----------10----------9-----/----|
Db|------------------------------------------------------------------------------------------------|
Ab|------------------------------------------------------------------------------------------------|
Eb|------------------------------------------------------------------------------------------------|
+
eb|-------------------------------------------------14----14----13---------------------------------|
Bb|-------------------15----------15----15----15----------------------15----------15----15----15---|
Gb|-------------14---------------------------------------------------------------------------------|
Db|-12----12---------------------------------------------------------------------------------------|
Ab|------------------------------------------------------------------------------------------------|
Eb|------------------------------------------------------------------------------------------------|
+
eb|------------------------------------------------------------------------------------------------|
Bb|------------------------------------------------------------------------------------------------|
Gb|-------------------------------------------------------------------------11--(b12)---11---------|
Db|-0-----0-----9-----9-----12----12----9-----9-----0-----0-----9-----9----------------------------|
Ab|------------------------------------------------------------------------------------------------|
Eb|------------------------------------------------------------------------------------------------|
+
eb|------------------------------------------------------------------------------------------------|
Bb|------------------------------------------------------------------------------------------------|
Gb|-------------------------------------------------------------------------11----10----11~--------|
Db|-0-----0-----9-----9-----12----12----9-----9-----0-----0-----9-----9----------------------------|
Ab|------------------------------------------------------------------------------------------------|
Eb|------------------------------------------------------------------------------------------------|



VERSE III:
 Guitar L
eb|------------------------------------------------------------------------------------------------||
Bb|------------------------------------------------------------------------------------------------||
Gb|-------------------------------------------------------------------------11--(b12)---11---------|| x 4
Db|-0-----0-----9-----9-----12----12----9-----9-----0-----0-----9-----9----------------------------||
Ab|------------------------------------------------------------------------------------------------||
Eb|------------------------------------------------------------------------------------------------||
|                                                                                                  |
|                                                                                                  |
|Guitar R                                                                                          |
eb|------------------------------------------------------------------------------------------------|
Bb|------------------------------------------------------------------------------------------------|
Gb|-------------------------------------------------------------------------11--(b12)---11---------|
Db|-0-----0-----9-----9-----12----12----9-----9-----0-----0-----9-----9----------------------------|
Ab|------------------------------------------------------------------------------------------------|
Eb|------------------------------------------------------------------------------------------------|
+
eb|------------------------------------------------------------------------------------------------|
Bb|------------------------------------------------------------------------------------------------|
Gb|-------------------------------------------------------------------------11----10----11~--------|
Db|-0-----0-----9-----9-----12----12----9-----9-----0-----0-----9-----9----------------------------|
Ab|------------------------------------------------------------------------------------------------|
Eb|------------------------------------------------------------------------------------------------|
+
eb|------------------------------------------------------------------------------------------------||
Bb|------------------------------------------------------------------------------------------------||
Gb|-------------------------------------------------------------------------11--(b12)---11---------|| x 2
Db|-0-----0-----9-----9-----12----12----9-----9-----0-----0-----9-----9----------------------------||
Ab|------------------------------------------------------------------------------------------------||
Eb|------------------------------------------------------------------------------------------------||



BRIDGE:
 Guitar L
eb|------------------------------------------------------------------------------------------------||
Bb|-------------------------------------------------------------------------15B--(17)---15---------||
Gb|-------------11----------------11----------------11---------------------------------------------|| x 4
Db|-0-----9-----------0-----9-----------0-----9-----------0-----9/---------------------------------||
Ab|------------------------------------------------------------------------------------------------||
Eb|------------------------------------------------------------------------------------------------||
+
eb|------------------------------------------------------------------------------------------------||
Bb|------------------------------------------------------------------------------------------------||
Gb|-------------------------------------------------------------------------14----14----14----14---|| x 2
Db|-0-----0-----9-----9-----12----12----9-----9-----0-----0-----9----/12---------------------------||
Ab|------------------------------------------------------------------------------------------------||
Eb|------------------------------------------------------------------------------------------------||
+
eb|------------------------------------------------------------------------------------------------||
Bb|------------------------------------------------------------------------------------------------||
Gb|-------------------------------------------------------------------------11--(b12)---11---------|| x 2
Db|-0-----0-----9-----9-----12----12----9-----9-----0-----0-----9-----9----------------------------||
Ab|------------------------------------------------------------------------------------------------||
Eb|------------------------------------------------------------------------------------------------||
|                                                                                                  |
|                                                                                                  |
|Guitar R                                                                                          |
eb|------------------------------------------------------------------------------------------------||
Bb|-------------------------------------------------------------------------15B--(17)---15---------||
Gb|-------------11----------------11----------------11---------------------------------------------|| x 2
Db|-0-----9-----------0-----9-----------0-----9----------------------------------------------------||
Ab|------------------------------------------------------------------------------------------------||
Eb|------------------------------------------------------------------------------------------------||
+
eb|------------------------------------------------------------------------------------------------||
Bb|------------------------------------------------------------------------------------------------||
Gb|-------------------------------------------------------------------------11--(b12)---11---------|| x 3
Db|-0-----0-----9-----9-----12----12----9-----9-----0-----0-----9-----9----------------------------||
Ab|------------------------------------------------------------------------------------------------||
Eb|------------------------------------------------------------------------------------------------||
+
eb|------------------------------------------------------------------------------------------------|
Bb|-------------------------------------------------------------------------12----12----12----12---|
Gb|------------------------------------------------------------------------------------------------|
Db|-0-----0-----9-----9-----12----12----9-----9-----0-----0-----9----/12---------------------------|
Ab|------------------------------------------------------------------------------------------------|
Eb|------------------------------------------------------------------------------------------------|
+
eb|------------------------------------------------------------------------------------------------||
Bb|------------------------------------------------------------------------------------------------||
Gb|-------------------------------------------------------------------------11--(b12)---11---------|| x 2
Db|-0-----0-----9-----9-----12----12----9-----9-----0-----0-----9-----9----------------------------||
Ab|------------------------------------------------------------------------------------------------||
Eb|------------------------------------------------------------------------------------------------||



INTERLUDE A IV:
 Guitar L
eb|------------------------------------------------------------------------------------------------|
Bb|-------10----------9-----------10----------9-----------10----------9-----------10---------------|
Gb|-10----------9-----------10----------9-----------10----------9-----------10----------9-----/----|
Db|------------------------------------------------------------------------------------------------|
Ab|------------------------------------------------------------------------------------------------|
Eb|------------------------------------------------------------------------------------------------|
+
eb|------------------------------------------------------------------------------------------------|
Bb|-------------------15----------15----15----15----15----15---------------------------------------|
Gb|-------------14----------------------------------------------14---------------------------------|
Db|-12----12----------------------------------------------------------12----------12----12\--------|
Ab|------------------------------------------------------------------------------------------------|
Eb|------------------------------------------------------------------------------------------------|
+
eb|------------------------------------------------------------------------------------------------|
Bb|-------10----------9-----------10----------9-----------10----------9-----------10---------------|
Gb|-10----------9-----------10----------9-----------10----------9-----------10----------9-----/----|
Db|------------------------------------------------------------------------------------------------|
Ab|------------------------------------------------------------------------------------------------|
Eb|------------------------------------------------------------------------------------------------|
+
eb|-------------------------------------------------14----14----13---------------------------------|
Bb|-------------------15----------15----15----15----------------------15----------15----15----15---|
Gb|-------------14---------------------------------------------------------------------------------|
Db|-12----12---------------------------------------------------------------------------------------|
Ab|------------------------------------------------------------------------------------------------|
Eb|------------------------------------------------------------------------------------------------|
+
eb|------------------------------------------------------------------------------------------------||
Bb|------------------------------------------------------------------------------------------------||
Gb|-------------------------------------------------------------------------11--(b12)---11---------|| x 4
Db|-0-----0-----9-----9-----12----12----9-----9-----0-----0-----9-----9----------------------------||
Ab|------------------------------------------------------------------------------------------------||
Eb|------------------------------------------------------------------------------------------------||
|                                                                                                  |
|                                                                                                  |
|Guitar R                                                                                          |
eb|------------------------------------------------------------------------------------------------|
Bb|-------10----------9-----------10----------9-----------10----------9-----------10---------------|
Gb|-10----------9-----------10----------9-----------10----------9-----------10----------9-----/----|
Db|------------------------------------------------------------------------------------------------|
Ab|------------------------------------------------------------------------------------------------|
Eb|------------------------------------------------------------------------------------------------|
+
eb|------------------------------------------------------------------------------------------------|
Bb|-------------------15----------15----15----15----15----15---------------------------------------|
Gb|-------------14----------------------------------------------14---------------------------------|
Db|-12----12----------------------------------------------------------12----------12----12\--------|
Ab|------------------------------------------------------------------------------------------------|
Eb|------------------------------------------------------------------------------------------------|
+
eb|------------------------------------------------------------------------------------------------|
Bb|-------10----------9-----------10----------9-----------10----------9-----------10---------------|
Gb|-10----------9-----------10----------9-----------10----------9-----------10----------9-----/----|
Db|------------------------------------------------------------------------------------------------|
Ab|------------------------------------------------------------------------------------------------|
Eb|------------------------------------------------------------------------------------------------|
+
eb|-------------------------------------------------14----14----13---------------------------------|
Bb|-------------------15----------15----15----15----------------------15----------15----15----15---|
Gb|-------------14---------------------------------------------------------------------------------|
Db|-12----12---------------------------------------------------------------------------------------|
Ab|------------------------------------------------------------------------------------------------|
Eb|------------------------------------------------------------------------------------------------|
+
eb|------------------------------------------------------------------------------------------------||
Bb|------------------------------------------------------------------------------------------------||
Gb|-------------------------------------------------------------------------11--(b12)---11---------|| x 4
Db|-0-----0-----9-----9-----12----12----9-----9-----0-----0-----9-----9----------------------------||
Ab|------------------------------------------------------------------------------------------------||
Eb|------------------------------------------------------------------------------------------------||



INTERLUDE B I:
 Guitar L
eb|------------------------------------------------------------------------------------------------||
Bb|------------------------------------------------------------------------------------------------||
Gb|-------------------------14----14----14----14----------------------------14----14----14----14---|| x 13
Db|-0-----0-----9----/12----------------------------0-----0-----9----/12---------------------------||
Ab|------------------------------------------------------------------------------------------------||
Eb|------------------------------------------------------------------------------------------------||
+
eb|------------------------------------------------------------------------------------------------||
Bb|------------------------------------------------------------------------------------------------||
Gb|-------------------------------------------------------------------------11--(b12)---11---------|| x 2
Db|-0-----0-----9-----9-----12----12----9-----9-----0-----0-----9-----9----------------------------||
Ab|------------------------------------------------------------------------------------------------||
Eb|------------------------------------------------------------------------------------------------||
+
eb|------------------------------------------------------------------------------------------------||
Bb|------------------------------------------------------------------------------------------------||
Gb|-------------------------------------------------------------------------11--(b12)---11---------|| x 2
Db|-0-----0-----9-----9-----12----12----9-----9-----0-----0-----9-----9----------------------------||
Ab|------------------------------------------------------------------------------------------------||
Eb|------------------------------------------------------------------------------------------------||
|                                                                                                  |
|                                                                                                  |
|Guitar R                                                                                          |
eb|------------------------------------------------------------------------------------------------||
Bb|-------------------------12----12----12----12----------------------------12----12----12----12---||
Gb|------------------------------------------------------------------------------------------------|| x 13
Db|-0-----0-----9----/12----------------------------0-----0-----9----/12---------------------------||
Ab|------------------------------------------------------------------------------------------------||
Eb|------------------------------------------------------------------------------------------------||
+
eb|------------------------------------------------------------------------------------------------|
Bb|-------------------------12----12----12----12---------------------------------------------------|
Gb|-------------------------------------------------------------------------11--(b12)---11---------|
Db|-0-----0-----9----/12----------------------------0-----0-----9----------------------------------|
Ab|------------------------------------------------------------------------------------------------|
Eb|------------------------------------------------------------------------------------------------|
+
eb|------------------------------------------------------------------------------------------------|
Bb|------------------------------------------------------------------------------------------------|
Gb|-------------------------------------------------------------------------11--(b12)---11---------|
Db|-0-----0-----9-----9-----12----12----9-----9-----0-----0-----9-----9----------------------------|
Ab|------------------------------------------------------------------------------------------------|
Eb|------------------------------------------------------------------------------------------------|
+
eb|------------------------------------------------------------------------------------------------||
Bb|------------------------------------------------------------------------------------------------||
Gb|-------------------------------------------------------------------------11--(b12)---11---------|| x 2
Db|-0-----0-----9-----9-----12----12----9-----9-----0-----0-----9-----9----------------------------||
Ab|------------------------------------------------------------------------------------------------||
Eb|------------------------------------------------------------------------------------------------||



OUTRO:
 Guitar L
eb|------------------------------------------------------------------------------------------------||
Bb|------------------------------------------------------------------------------------------------||
Gb|-------------------------------------------------------------------------11--(b12)---11---------|| x 8
Db|-0-----0-----9-----9-----12----12----9-----9-----0-----0-----9-----9----------------------------||
Ab|------------------------------------------------------------------------------------------------||
Eb|------------------------------------------------------------------------------------------------||
|                                                                                                  |
|                                                                                                  |
|Guitar R                                                                                          |
eb|------------------------------------------------------------------------------------------------||
Bb|------------------------------------------------------------------------------------------------||
Gb|-------------------------------------------------------------------------11--(b12)---11---------|| x 3
Db|-0-----0-----9-----9-----12----12----9-----9-----0-----0-----9-----9----------------------------||
Ab|------------------------------------------------------------------------------------------------||
Eb|------------------------------------------------------------------------------------------------||
+
eb|------------------------------------------------------------------------------------------------||
Bb|------------------------------------------------------------------------------------------------||
Gb|-------------------------------------------------------------------------11----10----11~--------|| x 2
Db|-0-----0-----9-----9-----12----12----9-----9-----0-----0-----9-----9----------------------------||
Ab|------------------------------------------------------------------------------------------------||
Eb|------------------------------------------------------------------------------------------------||
+
eb|------------------------------------------------------------------------------------------------||
Bb|------------------------------------------------------------------------------------------------||
Gb|-------------------------------------------------------------------------11--(b12)---11---------|| x 3
Db|-0-----0-----9-----9-----12----12----9-----9-----0-----0-----9-----9----------------------------||
Ab|------------------------------------------------------------------------------------------------||
Eb|------------------------------------------------------------------------------------------------||            
Submit corrections


        Walking On Red  lessons Hard to play? Try these video lessons and learn fast Walking On Red  lessons
        
↑ Back to top | Tablatures and chords for acoustic guitar and electric guitar, ukulele, drums are parodies/interpretations of the original songs. You may use it for private study, scholarship, research or language learning purposes only