» » »

Soda Stereo - Signos Tabs

Artists:  A B C D E F G H I J K L M N O P Q R S T U V W X Y Z # 

Signos Tabs

(ver. 3) Click to play this song!
Soda Stereo
 Rating:
4/5 (4 votes)

 Signos lessons Tabs too difficult? Try these video lessons and learn fast
 
                (Live)
Banda: Soda Stereo
Cancion: Signos (en vivo)
Transcrito por: Carlos Ramirez
Afinacion: EAGDBe

INTRO: (con delay)
e|-----------------------------------------8-7-5-------------------------|
B|----------------------------------8-7-5--------8-7-5-------------------|
G|------------5-7-5-----------5-7-5--------------------7-5---------------|
D|--7-7-7-7-7-------7-7-7-7-7-------------------------------7-5----------|
A|-----------------------------------------------------------------------|
E|-----------------------------------------------------------------------|

e|-----------------------------------------8-7-10-8-12-10-14-12-15-------|
B|-----------------------------------8-7-5-------------------------------|
G|-------------5-7-5-----------5-7-5-------------------------------------|
D|--7-7-7-7-7--------7-7-7-7-7-------------------------------------------|
A|-----------------------------------------------------------------------|
E|-----------------------------------------------------------------------|

e|----------------------------------------7-5-8-7-5----------------------|
B|----------------------------------8-7-5-----------8-7-5----------------|
G|------------5-7-5-----------5-7-5-----------------------7-5------------|
D|--7-7-7-7-7-------7-7-7-7-7--------------------------------------------|
A|-----------------------------------------------------------------------|
E|-----------------------------------------------------------------------|


e|-----------------------------------------8-7-10-8-12-10-14-12-15-------|
B|-----------------------------------8-7-5-------------------------------|
G|-------------5-7-5-----------5-7-5-------------------------------------|
D|--7-7-7-7-7--------7-7-7-7-7-------------------------------------------|
A|-----------------------------------------------------------------------|
E|-----------------------------------------------------------------------|

VERSE: (con delay)
e|---------------------------------------------------|
B|------1----------1-----------5--------5------------|
G|----2---2-----2-----2------4---4----4---4----------|
D|-2---------2-------------5--------5----------------|
A|---------------------------------------------------|
E|---------------------------------------------------|
             no hay un modo


e|---------------------------------------------------|
B|------3----------3---------3----------3------------|
G|----4---4-----4----4-----2---2------2---2----------|
D|--5-------5------------3---------3-----------------|
A|---------------------------------------------------|
E|---------------------------------------------------|
             no hay un punto exacto


e|---------------------------------------------------|
B|------1----------1-----------5--------5------------|
G|----2---2-----2-----2------4---4----4---4----------|
D|-2---------2-------------5--------5----------------|
A|---------------------------------------------------|
E|---------------------------------------------------|
                te doy todo

e|---------------------------------------------------|
B|------8----------8-------3----------3--------------|
G|----7---7------7--7----2---2------2---2------------|
D|--8----------8-------3----------3------------------|
A|---------------------------------------------------|
E|---------------------------------------------------|
            y siempre guardas algo

INTERMEDIO ENTRE VERSOS:
e|--0-------5-----3----3/5--5/8---------|
B|--1-------5-----3---------------------|
G|--2-------4-----4---------------------|
D|--2-------5-----5---------------------|
A|--0-----------------------------------|
E|--------------------------------------|


  verso...


CORO:
    Am       D        Am7                  D        C
e|---5-------5---------5-------------------5--------3-------------|
B|---5-------7---5--7--8-------------------7--------5-------------|
G|---5-------7---------5-------------------7--------5-------------|
D|---7-------7---------7-------------------7--------5-------------|
A|---7-------5---------7-------------------5--------5-------------|
E|---5-----------------5------------------------------------------|
         signos          mi parte   insegura
         signos           uniendo     fisuras
    Am               D            Am7      D      C
e|---5---------------5-------------5-------5------3---------------|
B|---5---------------7-------------8-------7------5---------------|
G|---5---------------7-------------5-------7------5---------------|
D|---7---------------7-------------7-------7------5---------------|
A|---7---------------5-------------7-------5------3---------------|
E|---5-----------------------------5------------------------------|
       bajo una      luna hostil  signos   oh     oh
      figuras   sin   definir     signos   oh     oh

  (I)
e|----------------3------------------------3-----------------------------|
B|------1------0--------1---0--3----1----0-------1-----0-----------------|
G|----0------0--------0----0-------0----0------0-----0-------------------|
D|--3------3--------3----3-------3----3------3-----3---------------------|
A|-----------------------------------------------------------------------|
E|-----------------------------------------------------------------------|

verso, coro...


FINAL EN 2DO CORO:
    Am               D            Em       D      C
e|---5---------------5-------------7-------5------3--------|
B|---5---------------7-------------8-------7------5--------|
G|---5---------------7-------------9-------7------5--------|
D|---7---------------7-------------9-------7------5--------|
A|---7---------------5-------------7-------5------3--------|
E|---5-----------------------------------------------------|
 .....figuras   sin     definir   signos  oh     oh

  
(I) y luego.........


e|---------8----7----7-----------8----10/12-------|
B|------10---10---10---10-----10---10-------------|
G|----9---------------------9---------------------|  (2)
D|------------------------------------------------|
A|------------------------------------------------|
E|------------------------------------------------|

e|-------5---4---5--8--4--5----3-----|
B|-------6---6---6--6--6--6----5-----|
G|-------7---7---7--7--7--7----5-----| (2)
D|-------0---0---0--0--0--0----5-----|
A|-----------------------------3-----|
E|-----------------------------------|

e|-------5---4---5--8--4--5----------|
B|-------6---6---6--6--6--6----------|
G|-------7---7---7--7--7--7----------|
D|-------0---0---0--0--0--0----------|
A|-----------------------------------|
E|-----------------------------------|


e|---------------------------------------------------------|
B|-----5----------5----------5----------5------------------|
G|-------5----------5----------5----------5----------------|
D|---6-----6----6-----6----6-----6----6-----6--------------|
A|--7---------7----------7----------7----------------------|
E|---------------------------------------------------------|
      oooooooooooooooohhhhhhhhhhhhhhhhh.............

e|-------10----------------13-----------------16-----------|
B|----------9-----------------12-----------------15--------|
G|----10------10--------13--------13-------16-------16-----|
D|---9---------------12-----------------15-----------------|
A|---------------------------------------------------------|
E|---------------------------------------------------------|

coro...


FINAL ADICIONAL EN VIVO:
e|------------------------------------------------------------|
B|-------1------1----1--1---1--------3----3---3--3----3-------|
G|-----0---0------0---0---0---0-----0--0---0---0---0---0------| (2)
D|---3-------3-----3---3---3-------3----3----3--3---3---------|
A|------------------------------------------------------------|
E|------------------------------------------------------------|


e|----5-----7----8-----7----|     --7--
B|----5-----7----8-----7----|
G|----5-----7----9-----7----| (2)
D|----7-----9----10----9----|
A|----7-----9----10----9----|
E|----5-----7----8-----7----|
            
Submit corrections


        Signos lessons Hard to play? Try these video lessons and learn fast Signos lessons
        
↑ Back to top | Tablatures and chords for acoustic guitar and electric guitar, ukulele, drums are parodies/interpretations of the original songs. You may use it for private study, scholarship, research or language learning purposes only