» » »

Soda Stereo - Juego De SeduccióN Tabs

Artists:  A B C D E F G H I J K L M N O P Q R S T U V W X Y Z # 

Juego De SeduccióN Tabs

(ver. 1) Click to play this song!
Soda Stereo
 Rating:
3.6/5 (7 votes)

 Juego De SeduccióN lessons Tabs too difficult? Try these video lessons and learn fast
 
                (By T-GruPpE)
Empieza tocando esto varias veces:
 E|--0------|
 B|--0------|
 G|--4------|
 D|--4------|
 A|--2------|
 E|---------|
 

 Para la version que tocaron en el Ultimo Concierto, agreguen estos acordes:
 
 E|--------0--|
 B|--------0--|
 G|-----2--4--|
 D|--2--2--4--|
 A|--2--0--2--|
 E|--0--------|
 
 
E|-12--11--------------------------12--11---------------------------------------|
B|---------12--10------10--12--10----------12--10------10-----------------------|
G|-----------------12------------------------------12---------------------------|
D|------------------------------------------------------------------------------|
A|------------------------------------------------------------------------------|
E|------------------------------------------------------------------------------|

                                                  slide down a little...
E|-12--11--------------------------14--11--12--11-------------------------------|
B|---------12--10------10--12--10-----------------12----------------------------|
G|-----------------12-----------------------------------------------------------|
D|------------------------------------------------------------------------------|
A|------------------------------------------------------------------------------|
E|------------------------------------------------------------------------------|

E|-----------0----------------------------------------0-----------------------------|
B|-------0-------0---------------0----------------2-------2---------------0---------|
G|-----4---4---4---4---------3-------3----------2---2---2---2---------1-------1-----|
D|---4---------------4-----4---4---4---4------2---------------2-----2---2---2---2---|
A|-2---------------------4---------------4--0---------------------2---------------2-|
E|---------------------2----------------------------------------0-------------------|

E|-----------0----------------------------------------0-----------------------------|
B|-------0-------0---------------0----------------2-------2-------------------------|
G|-----4---4---4---4---------3-------3----------2---2---2---2-----7--6--5-----------|
D|---4---------------4-----4---4---4---4------2---------------2---7--6--5-----------|
A|-2---------------------4---------------4--0---------------------5--4--3-----------|
E|---------------------2------------------------------------------------------------|

   
E|-2------0------0------3---------------------------------------|
B|-4------0------2------3---------------------------------------|
G|-4------1------2------0---------------------------------------|
D|-4------2------2------0---------------------------------------|
A|-2------2------0------2---------------------------------------|
E|--------0-------------3---------------------------------------|
 
 Luego del segundo coro, la guitarra toca dos arpegios muy rapidos, que son
Mi Mayor y Fa sostenido mayor.
 

  luego este arpegio:
 
 E|--------------------------------------------------0--------------0-------|
 B|--------2--------2------------2---------2-------2-------2------2-------2-|
 G|-----4---------4-----------3----------3-------4-------4------3-------3---|
 D|--5----------5----------4-----------4-------5-------5------4-------4-----|
 A|-------------------------------------------------------------------------|
 E|-------------------------------------------------------------------------|
 

La Cancion Termina en este acorde...
 
 E|--0---------|
 B|--2---------|
 G|--4---------|
 D|--5---------|
 A|------------|
 E|------------|
            
Submit corrections


        Juego De SeduccióN lessons Hard to play? Try these video lessons and learn fast Juego De SeduccióN lessons
        
↑ Back to top | Tablatures and chords for acoustic guitar and electric guitar, ukulele, drums are parodies/interpretations of the original songs. You may use it for private study, scholarship, research or language learning purposes only