Home » S » Soda Estereo »

Soda Estereo - De Musica Ligera Bass

Artists:  A B C D E F G H I J K L M N O P Q R S T U V W X Y Z # 

De Musica Ligera Bass

(ver. 2) Click to play this song!
Soda Estereo
(2)
RIFF 1:
G-----------------------
D-----------------------
A-2-2------55-----------
E-----0333----05555-----

G-----------------------
D-----------------------
A-22------55-44---4-----
E----0333-------5-------

G-------------------------
D-------------------------
A-22------55-----4-5------
E----0333----55-----------

G-------------------------
D-------------------------
A-22------55-77-4---------
E----0333---------5-------

G-------------------------
D-------------------------
A-22------547-------------
E----0333-----75----------
            
Submit corrections

↑ Back to top | Tablatures and chords for acoustic guitar and electric guitar, ukulele, drums are parodies/interpretations of the original songs. You may use it for private study, scholarship, research or language learning purposes only