Home » S » Social Distortion »

Social Distortion - Maybellene Tabs

Artists:  A B C D E F G H I J K L M N O P Q R S T U V W X Y Z # 

Maybellene Tabs

(ver. 1) Click to play this song!
Social Distortion
this song is tuned down a half step like all of social d's stuff

Intro:
e]-------------------------------------------------------------------|
B]-----------5-5----5------------------------------------------------|
G]------2----4-4----4^-----------------------------------------------|
D]--2h4--------------------------------------------------------------|
A]-------------------------------------------------------------------|
E]-------------------------------------------------------------------|


Chorus:
A
Maybellene, why can't you be true
A7     D                           A
Oh, Maybellene, why can't you be true
A         E                                     A
You've started back doin' the things you used to do

Verse:
A (A is played for the whole verse)
As I was motivatin' over the hill
I saw Maybellene in a Coupe de Ville
Cadillac rollin' on the open road
Nothin' outruns my V-8 Ford
Cadillac doin' 'bout 95
Bumper-to-bumper, rollin' side by side

Solo:

e]------------------------------------------------------------------|
B]---5----5----5----5----5----5----5----5----5------7~~~~~~---------|
G]-----7^---7^---7^---7^---7^---7^---7^---7^---7^-------------------|
D]------------------------------------------------------------------|
A]------------------------------------------------------------------|
E]------------------------------------------------------------------|

e]-----------------------8p5------8p5-------8p5------8p5-----8p5-----|
B]--9-9-9-9-9-9-8-7-5--------7p5-------7p5------7p5------7p5-----7p5-|
G]--9-9-9-9-9-9-8-7-6------------------------------------------------|
D]-------------------------------------------------------------------|
A]-------------------------------------------------------------------|
E]-------------------------------------------------------------------|

e]--8p5-----8p5-----------------------------------------------------|
B]------7p5-----7p5----7br-7br-7-5----------------------------------|
G]-------------------------------------9--7--5----------------------|
D]-------------------------------------9--7--6----------------------|
A]------------------------------------------------------------------|
E]------------------------------------------------------------------|

song order:
Intro
Chorus
Verse
Chorus
Verse
Chorus
Solo
Verse
Chorus

this is my first tab, but it should be pretty close to the recording
            
Submit corrections

↑ Back to top | Tablatures and chords for acoustic guitar and electric guitar, ukulele, drums are parodies/interpretations of the original songs. You may use it for private study, scholarship, research or language learning purposes only