Home » S » Social Distortion »

Social Distortion - Gotta Know The Rules Tabs

Artists:  A B C D E F G H I J K L M N O P Q R S T U V W X Y Z # 

Gotta Know The Rules Tabs

(ver. 1) Click to play this song!
Social Distortion
                Part 1 (4 times):
e|----------------------------------------------------|
B|-3--3--3--3--3--3--3--1--1--------------------------|
G|----------------------------------------------------|
D|----------------------------------------------------|
A|----------------------------------------------------|
E|----------------------------------------------------|

Part 2 (2 times):
e|------5-6-6-3---1-3-3-1-------------------------------|
B|-3-------------------------1-3-3-1--------------------|
G|------------------------------------------------------|
D|------------------------------------------------------|
A|------------------------------------------------------|
E|------------------------------------------------------|

Part 3 (3 times):
e|-----1-----1----1--------------------------------------------------|
B|-1-3---1-3--1-3---1-3-1--------------------------------------------|
G|-------------------------------------------------------------------|
D|-------------------------------------------------------------------|
A|-------------------------------------------------------------------|
E|-------------------------------------------------------------------|

End with this
e|---------------------------------------------------------|
B|-1-3-----------------------------------------------------|
G|---------------------------------------------------------|
D|---------------------------------------------------------|
A|---------------------------------------------------------|
E|---------------------------------------------------------|
            
Submit corrections

↑ Back to top | Tablatures and chords for acoustic guitar and electric guitar, ukulele, drums are parodies/interpretations of the original songs. You may use it for private study, scholarship, research or language learning purposes only