» » »

Social Distortion - Far Side Of Nowhere Tabs

Artists:  A B C D E F G H I J K L M N O P Q R S T U V W X Y Z # 

Far Side Of Nowhere Tabs

(ver. 1) Click to play this song!
Social Distortion
 Rating:
4/5 (4 votes)

 Far Side Of Nowhere lessons Tabs too difficult? Try these video lessons and learn fast
 
                Intro/Main Riff:
   D                                            D
e|-2p0-------3p2-0---0h2-2--2p0-------3p2-------2----------------------------|
B|-3---3---3-3-----3-3------3---3---3-----3-----3----------------------------|
G|-------2------------------------2-------------2----------------------------|   Play 2X
D|----------------------------------------------0----------------------------|
A|---------------------------------------------------------------------------|
E|---------------------------------------------------------------------------|

Chords

D A G D  Em


D      A   G        D                 A         G       D
I wake up, drink my coffee, put on my pants and comb my hair-

D           A    G           D                   A            G      D
Today's the day, I ain't got nothing. I aint got nothin', not even a care-

D          A    G            D  
The Sun is out, it's shining bright. 

D             A               G         D
The birds are singin' and the sky's are blue-

D        A     G         D                       A      Em      A
My motor runs, a lover's heartbeat...  It's just me and you-


 [CHORUS]

        D       A      G      D           A        G     D
        Put the pedal to the metal, baby turn the radio on-

        D      A          G           D
        We can run to the far side of nowhere;

        D      A            G         D
        We can run 'til our days have gone-


D        A   G             D      D  A         G             D          
And ignorance, they say is bliss, so today I'm king of these hills-

D           A      G        D                    A    Em       A
We're gonna drive, drive to nowhere.  Aint gonna stop until... WE!


e|---------------------------------------------------------------------------|
B|---------------------------------------------------------------------------|
G|---------------------------------------------------------------------------|
D|---------------------------------------------------------------------------|
A|---------------------------------------------------------------------------|
E|---------------------------------------------------------------------------|

e|---------------------------------------------------------------------------|
B|---------------------------------------------------------------------------|
G|---------------------------------------------------------------------------|
D|---------------------------------------------------------------------------|
A|---------------------------------------------------------------------------|
E|---------------------------------------------------------------------------|

e|---------------------------------------------------------------------------|
B|---------------------------------------------------------------------------|
G|---------------------------------------------------------------------------|
D|---------------------------------------------------------------------------|
A|---------------------------------------------------------------------------|
E|---------------------------------------------------------------------------|

e|---------------------------------------------------------------------------|
B|---------------------------------------------------------------------------|
G|---------------------------------------------------------------------------|
D|---------------------------------------------------------------------------|
A|---------------------------------------------------------------------------|
E|---------------------------------------------------------------------------|            
Submit corrections


        Far Side Of Nowhere lessons Hard to play? Try these video lessons and learn fast Far Side Of Nowhere lessons
        
↑ Back to top | Tablatures and chords for acoustic guitar and electric guitar, ukulele, drums are parodies/interpretations of the original songs. You may use it for private study, scholarship, research or language learning purposes only