» » »

Social Distortion - Don Drag Me Down Tabs

Artists:  A B C D E F G H I J K L M N O P Q R S T U V W X Y Z # 

Don Drag Me Down Tabs

(ver. 1) Click to play this song!
Social Distortion
 Rating:
4/5 (4 votes)

 Don	 Drag Me Down lessons Tabs too difficult? Try these video lessons and learn fast
 
                Artist- Social Distortion
Song- Don't Drag Me Down

First solo (easy)
e--------------------------------------------6~-|
B---8---------------------------8-8-8---8-----|
G----8---------------8----8-8--------8--------|X2
D------10----10-10----------------------------|
A---------11------------------------------------|
E------------------------------------------------|

Intro to second solo
e-------------------------------------------------
B------------------------------------------------
G-5-5-5-5-8-8-8-8-12-12-12-12-10-10-10-10
D-x-x-x-x-x-x-x-x--x--x---x---x--x--x--x--x
A-3-3-3-3-6-6-6-6-10-10-10-10--8--8--8--8
E--------------------------------------------------

Second solo (easy but fast)
e------------------------------------
B-13----13-----13----13----13--------
G---b15----b15---b15---b15---b15-----
D------------------------------------
A------------------------------------
E------------------------------------

e-------------------------------
B--15-15-15-12-10---12-10-12----
G----------------12-----------10-7 
D-------------------------------
A-------------------------------
E-------------------------------

e------------------------------------------------------------
B-8-8-8-10-10-13-10--8---8-10-8-------8-8-8-10-10-13-10-8---8
G------------------10--------10-7--------------------10------
D------------------------------------------------------------
A------------------------------------------------------------
E---------------------------------------------------------------------------



(slower listen to the song)
e------------------------------------
B-----------------------------------
G-5-5-7-5-5-5-5-5-5-5-7-5~~~~
D-----------------------------------
A-----------------------------------
E-----------------------------------


Third solo {hard (pinch harmonic) and fast} 
e------------------------------------
B-13----13-----13----13----13--------
G---b15----b15---b15---b15---b15-----
D------------------------------------
A------------------------------------
E------------------------------------

e-------------------------------
B--15-15-15-12-10---12-10-12----
G----------------12-----------10-7 
D-------------------------------
A-------------------------------
E-------------------------------


e----------------------------------------
B--8-10bp8---8-10bp8---8-10bp8-8ph-8-10bp8-
G---------7---------7---------7---------7
D----------------------------------------
A----------------------------------------
E----------------------------------------

e------------------------------------
B-13----13-----13----13----13--------
G---b15----b15---b15---b15---b15-----
D------------------------------------
A------------------------------------
E------------------------------------

e-------------------------------
B--15-15-15-12-10---12-10-12----
G----------------12-----------10-7 
D-------------------------------
A-------------------------------
E-------------------------------

e------------------------------------------------------------
B-8-8-8-10-10-13-10--8---8-10-8-------8-8-8-10-10-13-10-8---8
G------------------10--------10-7--------------------10------
D------------------------------------------------------------
A------------------------------------------------------------
E-----------------------------------------------------------------------------------------


e--------------------------------------------6~-|
B---8---------------------------8-8-8---8-----|
G----8---------------8----8-8--------8--------|X2
D------10----10-10----------------------------|
A---------11------------------------------------|
E------------------------------------------------|
Bp=bend, power on
Ph- pinch harmonic
B=bend

my friend tabbed this and i got sick of seeing the completely wrong tab on MX so i entered it . i gotta give credit to christian. a cool kid  and great guitarist
            
Submit corrections


        Don	 Drag Me Down lessons Hard to play? Try these video lessons and learn fast Don	 Drag Me Down lessons
        
↑ Back to top | Tablatures and chords for acoustic guitar and electric guitar, ukulele, drums are parodies/interpretations of the original songs. You may use it for private study, scholarship, research or language learning purposes only