Home » S » Social Distortion »

Social Distortion - Bye Bye Baby Tabs

Artists:  A B C D E F G H I J K L M N O P Q R S T U V W X Y Z # 

Bye Bye Baby Tabs

(ver. 1) Click to play this song!
Social Distortion
INTRO
 
D#|---0----------0--------------0----------0-----------|
A#|---0----3-----0----3---------0----3-----0----3------|
F#|---x----0-2---x----0-2-2-----x----0-2---x----0-2-2--|
C#|---2--2-0-2---2--2-0-2-2-----2--2-0-2---2--2-0-2-2--|
G#|---2--2-x-0---2--2-x-0-0-----2--2-x-0---2--2-x-0-0--|
D#|-0----0-3---0----0-3-------0----0-3---0----0-3------|
 
 
VERSE
 
     PM-------|          PM-------|
D#|------------------------------------------|
A#|------------------------------------------|
F#|------------------------------------------|
C#|-------------5-5-7-7-------------5-5-7-7--|
G#|--2-2--2-2-2-5-5-7-7--2-2--2-2-2-5-5-7-5--|
D#|--0-0--0-0-0-3-3-5-5--0-0--0-0-0-3-3-5-5--|
 
CHORUS
 
D#|----------------------------0---------0----------|
A#|----------------------------0-3-------0-3--------|
F#|-2-2-2-2-2-2-2-2-2-2-2-2----x-0-2-2---x-0-2-2----|
C#|-2-2-2-2-2-2-2-2-2-2-2-2----2-0-2-2---2-0-2-2----|
G#|-0-0-0-0-0-0-0-0-0-0-0-0----2-x-0-0---2-x-0-0----|
D#|--------------------------0---3-----0---3--------|
 
 
D#|---------------------------0---------0---------0---------0----------|
A#|---------------------------0-3-------0-3-------0-3-------0-3--------|
F#|-4-4-4-4-4-4-4-4-4-4-4-4---x-0-2-2---x-0-2-2---x-0-2-2---x-0-2-2----|
C#|-4-4-4-4-4-4-4-4-4-4-4-4---2-0-2-2---2-0-2-2---2-0-2-2---2-0-2-2----|
G#|-2-2-2-2-2-2-2-2-2-2-2-2---2-x-0-0---2-x-0-0---2-x-0-0---2-x-0-0----|
D#|-------------------------0---3-----0---3-----0---3-----0---3--------|
 
 
SOLO
 
D#|-----------------------------------------------------------0-----------0-|
A#|-----------------------------------------------------------0-----------0-|
F#|---------------0-2-3-2-0---------------0-2-3-2-0-----------x-----------x-|
C#|-----------0-2---------------------0-2---------------------2-----------2-|
G#|-----0-1-2-------------------0-1-2---------------0h1-0-----2-0h1-0-----2-|
D#|-0-3---------------------0-3---------------------------3-0---------3-0---|
 
 
D#|-----------------------------------0-----------0---------0-------0-----|
A#|-----------------------------------0---3-------0-3-------0-3-----0-3---|
F#|-----------------------------------x---0-2-2---x-0-2-2---x-0-2---x-0-2-|
C#|-----------------------------------2---0-2-2---2-0-2-2---2-0-2---2-0-2-|
G#|-0h1-0---0h1-0---0h1-0---0h1-0-----2-2-x-0-0---2-x-0-0---2-x-0---2-x-0-|
D#|-------3-------3-------3-------3-0---0-3-----0---3-----0---3---0---3---|
 
                ~            ~
D#|---------------------------------------------------------0---------|
A#|---------------------------------------------------------0-3-------|
F#|-------------------------------------------0-------------x-0-2-2---|
C#|---2-2p0---0-2--2-2p0---0-2--2-2p0---0-2-2---2-0---------2-0-2-2---|
G#|---------2------------2------------2-------------1-0-----2-x-0-0---|
D#|-0---------------------------------------------------3-0---3-------|
            
Submit corrections

↑ Back to top | Tablatures and chords for acoustic guitar and electric guitar, ukulele, drums are parodies/interpretations of the original songs. You may use it for private study, scholarship, research or language learning purposes only