» » »

Socialburn - U By Socialburn Tabs

Artists:  A B C D E F G H I J K L M N O P Q R S T U V W X Y Z # 

U By Socialburn Tabs

(ver. 1) Click to play this song!
Socialburn
 Rating:
4/5 (4 votes)

 U By Socialburn lessons Tabs too difficult? Try these video lessons and learn fast
 
                Intro x4 and verse part 2
e---------------------------------------------------------------
B---------------------------------------------------------------
G---------------------------------------------------------------
D----------------------------------4b---------------------------
A------5-4-4-2-2-0-2-----5-4-4-2-2------------------------------
E--7-7---------------7-7----------------------------------------
Verse part 1
e----------------------------------------------------------------
B----------------------------------------------------------------
G-7-7-7-7-7-7-7-7------------------------------------------------
D-7-7-7-7-7-7-7-7-7-7-7-7-7-7-7-7-2-2-2-2-2-2-2-2-5-5-5-5-5-5-5-5
A-5-5-5-5-5-5-5-5-7-7-7-7-7-7-7-7-2-2-2-2-2-2-2-2-5-5-5-5-5-5-5-5
E-----------------5-5-5-5-5-5-5-5-0-0-0-0-0-0-0-0-3-3-3-3-3-3-3-3

Thats basically it. If you find any mistakes please feel free to correct them.

And yes T.J. this is the James you know.
            
Submit corrections


        U By Socialburn lessons Hard to play? Try these video lessons and learn fast U By Socialburn lessons
        
↑ Back to top | Tablatures and chords for acoustic guitar and electric guitar, ukulele, drums are parodies/interpretations of the original songs. You may use it for private study, scholarship, research or language learning purposes only