» » »

Soapdish - TensionadoSolo Tabs

Artists:  A B C D E F G H I J K L M N O P Q R S T U V W X Y Z # 

TensionadoSolo Tabs

(ver. 2) Click to play this song!
Soapdish
 Rating:
4/5 (4 votes)

 TensionadoSolo  lessons Tabs too difficult? Try these video lessons and learn fast
 
                (2)
Song Title:Tensionado
Eto nga pala tab ko para sa solo ng tensionado
im sure this is 100% accurate.
Suggestions?request?comments or corrections


Tuning:Eadgbe(Standard)


 |----------------------------------------------------------------------------|
 |----------------------------------------------------------------------------|
 |---14-14-14-14-14-14-14-14-14-14-14-14b/-----------14h16-13---13h14-11------|
 |-------------------------------------------------16---------14---------12---|
 |----------------------------------------------------------------------------|
 |----------------------------------------------------------------------------|

 |----------------------------|--------------------------|---------------------------------|
 |-----------------------------|-------14-----14-17--17b19|-17b19r17-14-17-----------------|
 |------14h16-16b18r16-14-16-|---14-16----16-------------|-----------------16b18r16-14-----|
 |---16----------------------- |--------------------------|--------------------------------|
 |-----------------------------|--------------------------|--------------------------------|
 |---------------------------- |--------------------------|--------------------------------|

 |----------------------------|---------------------------------------------------------|
 |----------------------------|------------------------14---14-17-17b19~----------------|
 |---------14-16-16b18-16b18|--------------14---14--16---16-----------------------------|
 |--14-16------------------ --|------14-16----16----------------------------------------|
 |----------------------------|14-16----------------------------------------------------|
 |----------------------------|---------------------------------------------------------|



  ************************************

 | /   slide up
 | \   slide down
 | h   hammer-on
 |  p   pull-off
 | ~   vibrato
 | +   harmonic
 | x   Mute note
 | b   Bend
 | pb  Pre-bend
 | br  Bend release
 | pbr Pre-bend release
 | brb Bend release bend

 ************************************
            
Submit corrections


        TensionadoSolo  lessons Hard to play? Try these video lessons and learn fast TensionadoSolo  lessons
        
↑ Back to top | Tablatures and chords for acoustic guitar and electric guitar, ukulele, drums are parodies/interpretations of the original songs. You may use it for private study, scholarship, research or language learning purposes only