» » »

Snuff - Sweet Dreams Tabs

Artists:  A B C D E F G H I J K L M N O P Q R S T U V W X Y Z # 

Sweet Dreams Tabs

(ver. 1) Click to play this song!
Snuff
 Rating:
4.3/5 (26 votes)

 Sweet Dreams lessons Tabs too difficult? Try these video lessons and learn fast
 
                e|-------------------------------|-------------|
b|-------4-----------4---------4-|-------------|
G|-------4-----4-----4-----4---4-|-------------| 
D|-------2-----4-----2-----4---2-|-7--7--------| 
A|-2-2-2-2-2-2-2-2-2-2-2-2-2-2-2-|-7--7--------|
E|-0-0-0-0-0-0-0-0-0-0-0-0-0-0-0-|-5--5--------|
   * * *   * *   * *   * *   * 

e|-------------------------------|---------------------------|
b|-------4-----------4---------4-|---------------------------|
G|-------4-----4-----4-----4---4-|---------------------------| 
D|-------2-----4-----2-----4---2-|-7--7-7-7-7-7--7-7-7-7-7-7-| x2
A|-2-2-2-2-2-2-2-2-2-2-2-2-2-2-2-|-7--7-7-7-7-7--7-7-7-7-7-7-|
E|-0-0-0-0-0-0-0-0-0-0-0-0-0-0-0-|-5--5-5-5-5-5--5-5-5-5-5-5-|
   * * *   * *   * *   * *   *   

e|-------------------------------------------------------------------------|
b|-------------------------------------------------------------------------|
G|----------4-4-4444-----------------4----------4-4-4444-------------------| 
D|-2-2-2222-4-4-4444-7-7-7777-7-7-77-4-2-2-2222-4-4-4444-7-7-7777-7-7-7777-| 
A|-2-2-2222-2-2-2222-7-7-7777-7-7-77-2-2-2-2222-2-2-2222-7-7-7777-7-7-7777-|
E|-0-0-0000----------5-5-5555-5-5-55---0-0-0000----------5-5-5555-5-5-5555-|

e|-------------------------------|---------------------------|
b|-------4-----------4---------4-|---------------------------|
G|-------4-----4-----4-----4---4-|---------------------------| 
D|-------2-----4-----2-----4---2-|-7--7-7-7-7-7--7-7-7-7-7-7-| 
A|-2-2-2-2-2-2-2-2-2-2-2-2-2-2-2-|-7--7-7-7-7-7--7-7-7-7-7-7-|
E|-0-0-0-0-0-0-0-0-0-0-0-0-0-0-0-|-5--5-5-5-5-5--5-5-5-5-5-5-|
   * * *   * *   * *   * *   *   

e|-------------------------------------------------------------------------|
b|-------------------------------------------------------------------------|
G|----------4-4-4444-----------------4----------4-4-4444-------------------| 
D|-2-2-2222-4-4-4444-7-7-7777-7-7-77-4-2-2-2222-4-4-4444-7-7-7777-7-7-7777-| 
A|-2-2-2222-2-2-2222-7-7-7777-7-7-77-2-2-2-2222-2-2-2222-7-7-7777-7-7-7777-|
E|-0-0-0000----------5-5-5555-5-5-55---0-0-0000----------5-5-5555-5-5-5555-|

e|-----------------------------------------------------------------|
b|-16-1616-16-1616--141414-14-1414-12-1212-12-1212--121212-12-1212-|
G|-16-1616-16-1616--131313-13-1313-13-1313-13-1313--111111-11-1111-| 
D|-14-1414-14-1414--141414-14-1414-14-1414-14-1414--9-9-9--9--9-9--| x6
A|-----------------------------------------------------------------|
E|-----------------------------------------------------------------|

e|-----------------------------|
b|-10-1010-10-1010-1010-101010-|
G|-9--9-9--9--9-9--9-9--9-9-9--| 
D|-7--7-7--7--7-7--7-7--7-7-7--| 
A|-----------------------------|
E|-----------------------------|

e|--------------|
b|-4------------|
G|-4------------| 
D|-2-(let ring)-| 
A|-2------------|
E|-0------------|
            
Submit corrections


        Sweet Dreams lessons Hard to play? Try these video lessons and learn fast Sweet Dreams lessons
        
↑ Back to top | Tablatures and chords for acoustic guitar and electric guitar, ukulele, drums are parodies/interpretations of the original songs. You may use it for private study, scholarship, research or language learning purposes only