Home » S » Snuff »

Snuff - Nick Motown Tabs

Artists:  A B C D E F G H I J K L M N O P Q R S T U V W X Y Z # 

Nick Motown Tabs

(ver. 1) Click to play this song!
Snuff
 Rating:
4/5 (4 votes)
                I done it! Its probably not right correct me greatly but I got through
it. Who knows what next please write to me for help or requests or
generally to slag off my tabbing I don't care.

Theres four dashes between each chord representing four beats before 
changing
Intro/verse/chorus
|----------------------------------------------------------------------|
|----------------------------------------------------------------------|
|4---------6---------4---------6----6----------------------------------|
|4----4----6----4----4----4----6----6----------------------------------|
|2----4----4----4----2----4----4----4----------------------------------|
|-----2---------2---------2--------------------------------------------|

Bridge x4?
|----------------------------------------------------------------------|
|7-x-x-7-x-x-6-x-x-6-x-x-9-x-x-9-x-x-7-x-x-6---------------------------|
|8-x-x-8-x-x-6-x-x-6-x-x-9-x-x-9-x-x-8-x-x-6---------------------------|
|8-x-x-8-x-x-6-x-x-6-x-x-9-x-x-9-x-x-8-x-x-6---------------------------|
|6-x-x-6-x-x-4-x-x-4-x-x-7-x-x-7-x-x-6-x-x-4---------------------------|
|----------------------------------------------------------------------|

Trombone(like i would forget)
|----------------------------------------------------------------------|
|----------------------------------------------------------------------|
|8-8-8-8---66---9-9-8-8---66---4---------------------------------------|
|----------------------------------------------------------------------|
|----------------------------------------------------------------------|
|----------------------------------------------------------------------|

Well this took longer mainly because the guitar is hard to hear so the
chord changes harder to hear. Well that's it
            
Submit corrections

↑ Back to top | Tablatures and chords for acoustic guitar and electric guitar, ukulele, drums are parodies/interpretations of the original songs. You may use it for private study, scholarship, research or language learning purposes only