Home » S » Snuff »

Snuff - Emperor Tabs

Artists:  A B C D E F G H I J K L M N O P Q R S T U V W X Y Z # 

Emperor Tabs

(ver. 1) Click to play this song!
Snuff
 Rating:
4/5 (4 votes)
                I usually talk before I tab and this is no different. Please to god
someone help me to tab slipt by Snuff its based around F#,C#,B and E.
with Blue Gravy and if your based round Ipswich deffinetly e-mail me.

Intro x2
|----------------------------------------------------------------------|
|----------------------------------------------------------------------|
|------------------------------6-6-------------------------------------|
|8-8--8-8--8-8--8-8--8-8--8-8--6-6--66-6-------------------------------|
|8-8--8-8--8-8--8-8--8-8--8-8--4-4--66-6-------------------------------|
|6-6--6-6--6-6--6-6--6-6--6-6-------44-4-------------------------------|

Verse
|----------------------------------------------------------------------|
|----------------------------------------------------------------------|
|-------------------------------6--------------------------------------|
|8------------------------------6---6----------------------------------|
|8------------------------------4---6----------------------------------|
|6----------------------------------4----------------------------------|

Chorus
|----------------------------------------------------------------------|
|----------------------------------------------------------------------|
|----------------------------------------------------------------------|
|3-3-3--6--8-8-8--6--3-3-3--6--8-8-8--6--3-3-3--6--8-8-8--6------------|
|3-3-3--6--8-8-8--6--3-3-3--6--8-8-8--6--3-3-3--6--8-8-8--6------------|
|1-1-1--4--6-6-6--4--1-1-1--4--6-6-6--4--1-1-1--4--6-6-6--4------------|

Outro x7?
|-----------------------|----------------------------------------------|
|-----------------------|----------------------------------------------|
|-----------------------|----------------------------------------------|
|8-8-8-8-8-8-9-9-9-9-9-9|---11-11-8--(6)---------------------6---------|
|8-8-8-8-8-8-9-9-9-9-9-9|---11-11-8--(6)---------------------6---------|
|6-0-6-0-6-0-7-0-7-0-7-0|---9--9--6--(4)---------------------4---------|

Intro
Verse
Chorus
Verse
Chorus
Bridge(Which is intro)
Chorus
Verse
Chorus
Outro

Well that's it if you respond to my cry of help thatnks. Thanks Snuff
for playing this live its one of their best.
            
Submit corrections

↑ Back to top | Tablatures and chords for acoustic guitar and electric guitar, ukulele, drums are parodies/interpretations of the original songs. You may use it for private study, scholarship, research or language learning purposes only