» » »

Snuff - Dow Dow Boof Boof Tabs

Artists:  A B C D E F G H I J K L M N O P Q R S T U V W X Y Z # 

Dow Dow Boof Boof Tabs

(ver. 1) Click to play this song!
Snuff
 Rating:
4.2/5 (30 votes)

 Dow Dow Boof Boof lessons Tabs too difficult? Try these video lessons and learn fast
 
                Intro / verse

e|---------------------------|
b|-7--8----------7--8--------|
G|-------7---7---------4--4--|
D|-------9---9---------5--5--| x8
A|-------10--10--------7--7--|
E|---------------------------|

Precursor to chorus

e|-------|
b|-7--8--|
G|-------|
D|-------|
A|-------|
E|-------|

Chorus

e|-------------------------------------------|
b|-7--7-7-7--7-7-7--7-7-8--8-8-8--8-8-8--8-8-|
G|-7--7-7-7--7-7-7--7-7-9--9-9-9--9-9-9--9-9-|
D|-7--7-7-7--7-7-7--7-7-9--9-9-9--9-9-9--9-9-| x3
A|-5--5-5-5--5-5-5--5-5-7--7-7-7--7-7-7--7-7-|
E|-------------------------------------------|

verse

e|---------------------------|
b|-7--8----------7--8--------|
G|-------7---7---------4--4--|
D|-------9---9---------5--5--| x6
A|-------10--10--------7--7--|
E|---------------------------|

Chorus

e|-------------------------------------------|
b|-7--7-7-7--7-7-7--7-7-8--8-8-8--8-8-8--8-8-|
G|-7--7-7-7--7-7-7--7-7-9--9-9-9--9-9-9--9-9-|
D|-7--7-7-7--7-7-7--7-7-9--9-9-9--9-9-9--9-9-| x3
A|-5--5-5-5--5-5-5--5-5-7--7-7-7--7-7-7--7-7-|
E|-------------------------------------------|

verse

e|---------------------------|
b|-7--8----------7--8--------|
G|-------7---7---------4--4--|
D|-------9---9---------5--5--| x6
A|-------10--10--------7--7--|
E|---------------------------|

Chorus

e|-------------------------------------------|
b|-7--7-7-7--7-7-7--7-7-8--8-8-8--8-8-8--8-8-|
G|-7--7-7-7--7-7-7--7-7-9--9-9-9--9-9-9--9-9-|
D|-7--7-7-7--7-7-7--7-7-9--9-9-9--9-9-9--9-9-| x3
A|-5--5-5-5--5-5-5--5-5-7--7-7-7--7-7-7--7-7-|
E|-------------------------------------------|

verse

e|---------------------------|
b|-7--8----------7--8--------|
G|-------7---7---------4--4--|
D|-------9---9---------5--5--| x6
A|-------10--10--------7--7--|
E|---------------------------|

Chorus

e|-------------------------------------------|
b|-7--7-7-7--7-7-7--7-7-8--8-8-8--8-8-8--8-8-|
G|-7--7-7-7--7-7-7--7-7-9--9-9-9--9-9-9--9-9-|
D|-7--7-7-7--7-7-7--7-7-9--9-9-9--9-9-9--9-9-| x3
A|-5--5-5-5--5-5-5--5-5-7--7-7-7--7-7-7--7-7-|
E|-------------------------------------------|

Build up 

e|-------------------------------|
b|-7--8--------------------------|
G|-------7--7--7--7--7--7--7--7--|
D|-------9--9--9--9--9--9--9--9--|
A|-------10-10-10-10-10-10-10-10-|
E|-------------------------------|

Chorus

e|-------------------------------------------|
b|-7--7-7-7--7-7-7--7-7-8--8-8-8--8-8-8--8-8-|
G|-7--7-7-7--7-7-7--7-7-9--9-9-9--9-9-9--9-9-|
D|-7--7-7-7--7-7-7--7-7-9--9-9-9--9-9-9--9-9-| x3
A|-5--5-5-5--5-5-5--5-5-7--7-7-7--7-7-7--7-7-|
E|-------------------------------------------|

Last bar

e|---------------|
b|-7--8----------|
G|-------7---7---|
D|-------9---9---|
A|-------10--10--|
E|---------------|
            
Submit corrections


        Dow Dow Boof Boof lessons Hard to play? Try these video lessons and learn fast Dow Dow Boof Boof lessons
        
↑ Back to top | Tablatures and chords for acoustic guitar and electric guitar, ukulele, drums are parodies/interpretations of the original songs. You may use it for private study, scholarship, research or language learning purposes only