Home » S » Snuff »

Snuff - Caught In Session Tabs

Artists:  A B C D E F G H I J K L M N O P Q R S T U V W X Y Z # 

Caught In Session Tabs

(ver. 1) Click to play this song!
Snuff
 Rating:
4/5 (4 votes)
                Really simple fun to jam too. Watch out for timing especially during the
trombone bit, which i will transpose(thankyou)no trouble really. Nxt up
hopefully will be Nick motown or slipt if ne1 responds to my cry!

Whole song
|----------------------------------------------------------------------|
|----------------------------------------------------------------------|
|7-------------------------------4-------------------------------------|
|7-------------5-----------------4-------------------7-----------------|
|5-------------5-----------------2-------------------7-----------------|
|--------------3-------------------------------------5-----------------|

Trombone part in tab
|----------------------------------------------------------------------|
|3-5-7---------3-5-7-5-7-(5)-------------------------------------------|
|------(4)-------------------------------------------------------------|
|----------------------------------------------------------------------|
|----------------------------------------------------------------------|
|----------------------------------------------------------------------|

I know its easy but I had to keep you occupied for the next big project
            
Submit corrections

↑ Back to top | Tablatures and chords for acoustic guitar and electric guitar, ukulele, drums are parodies/interpretations of the original songs. You may use it for private study, scholarship, research or language learning purposes only