» » »

Snuff - Another Wet Weekend At The Tundra The... Tabs

Artists:  A B C D E F G H I J K L M N O P Q R S T U V W X Y Z # 

Another Wet Weekend At The Tundra The... Tabs

(ver. 1) Click to play this song!
Snuff
 Rating:
4/5 (4 votes)

 Another Wet Weekend At The Tundra The... lessons Tabs too difficult? Try these video lessons and learn fast
 
                Format: Guitar
Tuning: Standard

1st Riff:

e------------------323------------------323------------------323------------------323------------------323------------------323------------------323------------------32333222333222333
B-----------------1-11-----------------1-11-----------------1-11-----------------1-11-----------------1-11-----------------1-11-----------------1-11-----------------1-1111111111111111
G--------------------------------------------------------------------------------------------------------------------------------------------------------------------------------------
D-2-2-2-2-2-2-2-2------2-2-2-2-2-2-2-2------2-2-2-2-2-2-2-2------2-2-2-2-2-2-2-2------2-2-2-2-2-2-2-2------2-2-2-2-2-2-2-2------2-2-2-2-2-2-2-2------2-2-2-2-2-2-2-2-------------------
A-2-2-2-2-2-2-2-2------2-2-2-2-2-2-2-2------2-2-2-2-2-2-2-2------2-2-2-2-2-2-2-2------2-2-2-2-2-2-2-2------2-2-2-2-2-2-2-2------2-2-2-2-2-2-2-2------2-2-2-2-2-2-2-2-------------------
E-0-0-0-0-0-0-0-0------0-0-0-0-0-0-0-0------0-0-0-0-0-0-0-0------0-0-0-0-0-0-0-0------0-0-0-0-0-0-0-0------0-0-0-0-0-0-0-0------0-0-0-0-0-0-0-0------0-0-0-0-0-0-0-0-------------------

2nd Riff:

e-------------------------------------
B-------------------------------------
G-------------------------------------
D-2------5-2--2------5-2---2------5-2-
A-2------5-2--2------5-2---2------5-2-
E-0------3-0--0------3-0---0------3-0-


3rd Riff:

e-----------------
B-----------------
G-------------5---
D-2-5-7-2-2-5-5-2-
A-2-5-7-2-2-5-3-2-
E-0-3-5-0-0-3---0-

4th Riff:

e-----------------------------------------
B-----------------------------------------
G---5---2-------------------5---2---5---2-
D-2-5-2-2-2-2-2-2-2-2-2-2-2-5-2-2-2-5-2-2-
A-2-3-2-0-2-2-2-2-2-2-2-2-2-3-2-0-2-3-2-0-
E-0---0---0-0-0-0-0-0-0-0-0---0---0---0---

Repeat 1st Riff (Only 4 Times This Time):

e------------------323------------------323------------------323------------------32333222333222333
B-----------------1-11-----------------1-11-----------------1-11-----------------1-1111111111111111
G--------------------------------------------------------------------------------------------------
D-2-2-2-2-2-2-2-2------2-2-2-2-2-2-2-2------2-2-2-2-2-2-2-2------2-2-2-2-2-2-2-2-------------------
A-2-2-2-2-2-2-2-2------2-2-2-2-2-2-2-2------2-2-2-2-2-2-2-2------2-2-2-2-2-2-2-2-------------------
E-0-0-0-0-0-0-0-0------0-0-0-0-0-0-0-0------0-0-0-0-0-0-0-0------0-0-0-0-0-0-0-0-------------------

Go Into 3rd Riff:

e-----------------
B-----------------
G-------------5---
D-2-5-7-2-2-5-5-2-
A-2-5-7-2-2-5-3-2-
E-0-3-5-0-0-3---0-

Then 4th Riff:

e---------------------------------
B---------------------------------
G---5---2-------------------5---2-
D-2-5-2-2-2-2-2-2-2-2-2-2-2-5-2-2-
A-2-3-2-0-2-2-2-2-2-2-2-2-2-3-2-0-
E-0---0---0-0-0-0-0-0-0-0-0---0---

Then 1st Riff (8 Again):

e------------------323------------------323------------------323------------------323------------------323------------------323------------------323------------------32333222333222333
B-----------------1-11-----------------1-11-----------------1-11-----------------1-11-----------------1-11-----------------1-11-----------------1-11-----------------1-1111111111111111
G--------------------------------------------------------------------------------------------------------------------------------------------------------------------------------------
D-2-2-2-2-2-2-2-2------2-2-2-2-2-2-2-2------2-2-2-2-2-2-2-2------2-2-2-2-2-2-2-2------2-2-2-2-2-2-2-2------2-2-2-2-2-2-2-2------2-2-2-2-2-2-2-2------2-2-2-2-2-2-2-2-------------------
A-2-2-2-2-2-2-2-2------2-2-2-2-2-2-2-2------2-2-2-2-2-2-2-2------2-2-2-2-2-2-2-2------2-2-2-2-2-2-2-2------2-2-2-2-2-2-2-2------2-2-2-2-2-2-2-2------2-2-2-2-2-2-2-2-------------------
E-0-0-0-0-0-0-0-0------0-0-0-0-0-0-0-0------0-0-0-0-0-0-0-0------0-0-0-0-0-0-0-0------0-0-0-0-0-0-0-0------0-0-0-0-0-0-0-0------0-0-0-0-0-0-0-0------0-0-0-0-0-0-0-0-------------------

Then Play Just 1 Chord, Let It Ring Through A Bass Solo Kind've Thing:

e---
B---
G---
D-2-
A-2-
E-0-

The You Play The 2nd Riff Again, Only This Time With A Different Strumming Pattern (Listen To The CD To Work It Out)

e-------------------------------------
B-------------------------------------
G-------------------------------------
D-2------5-2--2------5-2---2------5-2-
A-2------5-2--2------5-2---2------5-2-
E-0------3-0--0------3-0---0------3-0-

The 1st Riff Once Again (4 Times):

e------------------323------------------323------------------323------------------32333222333222333
B-----------------1-11-----------------1-11-----------------1-11-----------------1-1111111111111111
G--------------------------------------------------------------------------------------------------
D-2-2-2-2-2-2-2-2------2-2-2-2-2-2-2-2------2-2-2-2-2-2-2-2------2-2-2-2-2-2-2-2-------------------
A-2-2-2-2-2-2-2-2------2-2-2-2-2-2-2-2------2-2-2-2-2-2-2-2------2-2-2-2-2-2-2-2-------------------
E-0-0-0-0-0-0-0-0------0-0-0-0-0-0-0-0------0-0-0-0-0-0-0-0------0-0-0-0-0-0-0-0-------------------

And Finally (Let It Ring):

e---
B---
G---
D-2-
A-2-
E-0-

That Should Be About It.
            
Submit corrections


        Another Wet Weekend At The Tundra The... lessons Hard to play? Try these video lessons and learn fast Another Wet Weekend At The Tundra The... lessons
        
↑ Back to top | Tablatures and chords for acoustic guitar and electric guitar, ukulele, drums are parodies/interpretations of the original songs. You may use it for private study, scholarship, research or language learning purposes only