» » »

Snowing - Sam Rudich Bass

Artists:  A B C D E F G H I J K L M N O P Q R S T U V W X Y Z # 

Sam Rudich Bass

(ver. 1) Click to play this song!
Snowing
 Rating:
4.3/5 (21 vote)

 Sam Rudich lessons Tabs too difficult? Try these video lessons and learn fast
 
                ["Been wasting..."] x4
   
G|--4-1----------------------|---------------------------|
D|------2-1---1--------------|------------2--2-----------|
A|----------4---2-0--0-------|--0-0--2--2----------------|
E|---------------------------|---------------------------|
    . . . . . . .    .          . .     .    .

[Verse] x2

G|---------------------------|
D|--2------------------------|
A|------4---0----------------|
E|--------------2------------|

["Because I feel nothing..."] x2
   
G|--4-1----------------------|---------------------------|
D|------2-1---1--------------|------------2--2-----------|
A|----------4---2-0--0-------|--0-0--2--2----------------|
E|---------------------------|---------------------------|
    . . . . . . .    .          . .     .    .

[Same riff but let the final notes ring out] x2
   
G|--4-1----------------------|---------------------------|
D|------2-1---1--------------|------------2--------------|
A|----------4---2-0----------|--0-0--2--2----------------|
E|---------------------------|---------------------------|
    . . . . . . .               . .     .

["You're not awake..."] x3

G|---------------------------|--------------------------------|
D|---------------------------|----2-2--2-2-2-2--2-2--2-2-2-2--|
A|--0---0-0-0--0-0-0--0-0-0--|--0-----------------------------|
E|---------------------------|--------------------------------|
            .      .      .     

["You're f**king gone..."] 

G|--------------------------------|------------------------------|
D|----2-2--2-2-2-2--2-2--2-2-2-2--|------------------------------|
A|--0-----------------------------|--0-0--0-0-0-0--0-0--0-0-0-0--|
E|--------------------------------|------------------------------|
             
G|------------------------------|------------------------------|
D|------------------------------|--2-2--2-2-2-2--2-2--2-2-2-2--|
A|--4-4--4-4-4-4--4-4--4-4-4-4--|------------------------------|
E|------------------------------|------------------------------|

[Breakdown]

G|------------------------------|-----------------------------------|
D|--2-2-2--2-2-2--2-2-2--2-2-2--|--2--------------------------------|
A|------------------------------|----0-0-0--0-0-0--0-0-0-0-0-0-0-0--|
E|------------------------------|-----------------------------------|
        .      .      .      .           .      .                . 

G|------------------------------|----------------------------------|
D|------------------------------|----2-2-2--2-2-2--2-2-2--2-2-2-2--|
A|--4-4-4--4-4-4--4-4-4--4-4-4--|--4-------------------------------|
E|------------------------------|----------------------------------|
        .      .      .      .           .      .      .        .

[Verse] 

G|----------------------------|
D|--2---------------2---------|
A|------4---0-----------------|
E|--------------2-------------|

["Ba da da dada ba baba ba..."] x2

G|---------------------------|
D|--2------------------------|
A|------4---0----------------|
E|--------------2------------|

[Transition to final breakdown] 
   
G|--4-1----------------------|
D|------2-1---1--------------|
A|----------4---2-4----------|
E|---------------------------|
    . . . . . . . .

[Breakdown] x3

G|--------------------|--------------------|
D|--------------------|--2----2----2----2--|
A|--0----0----0----0--|--------------------|
E|--------------------|--------------------|

[Ending]

G|--------------------|--------------------|
D|--------------------|--2-----------------|
A|--0----0----0----0--|--------------------|
E|--------------------|--------------------|

            
Submit corrections


        Sam Rudich lessons Hard to play? Try these video lessons and learn fast Sam Rudich lessons
        
↑ Back to top | Tablatures and chords for acoustic guitar and electric guitar, ukulele, drums are parodies/interpretations of the original songs. You may use it for private study, scholarship, research or language learning purposes only