Home » S » Snoop Dogg »

Snoop Dogg - Tha Shiznit Tabs

Artists:  A B C D E F G H I J K L M N O P Q R S T U V W X Y Z # 

Tha Shiznit Tabs

(ver. 1) Click to play this song!
Snoop Dogg
BASS TAB
G|------------|
D|-3----4---4-|
A|--3-4---4---|
E|------------|

KEYBOARD CHORDS
e|-1----4-|
B|-1----4-|
G|-2----5-|
D|-3----6-|
A|--------|
E|--------|

FLUTE PART (HOOK) [Can also be played up an octave]
e|--------|---------------------------------|
B|--------|---------------------------------|
G|--------|---------1---------5-3---1-------|
D|-3-3-3-3|-3---1-3----3-1-3------3---3-1-3-|
A|--------|---3-----------------------------|
E|--------|---------------------------------|

SYNTHESIZER RIFF
e|---------------------------------|
B|-13--13---12--12---11--11---9----|
G|---13-------12-------11-------10-|
D|---------------------------------|
A|---------------------------------|
E|---------------------------------|

GUITAR RIFF (PLAYED ALONG WITH SYNTHESIZER RIFF)
[May not be 100% correct as it's quieter than the synth line and harder to transcribe, 
but it sounds pretty
decent to me]
e|---------------1-|
B|-----------------|
G|-5---4---3---2---|
D|---6---5---4-----|
A|-----------------|
E|-----------------|            
Submit corrections

↑ Back to top | Tablatures and chords for acoustic guitar and electric guitar, ukulele, drums are parodies/interpretations of the original songs. You may use it for private study, scholarship, research or language learning purposes only