Home » S » Snoop Dogg »

Snoop Dogg - Ain Nothin But A G Thing Tabs

Artists:  A B C D E F G H I J K L M N O P Q R S T U V W X Y Z # 

Ain Nothin But A G Thing Tabs

(ver. 1) Click to play this song!
Snoop Dogg
GUITAR:
(main riff)
e--------------------------------------------------------------------
B--------------------------------------------------------------------
G-5-3-5-7-5-3--1-2--0-2----------------------------------------------
D--------------------------------------------------------------------
A--------------------------------------------------------------------
E--------------------------------------------------------------------

(bridge/middle)
e--------------------------------------------------------------------
B--------------------------------------------------------------------
G----4-4-------2-2---------------------------------------------------
D-4-------2---------2------------------------------------------------
A--------------------------------------------------------------------
E--------------------------------------------------------------------



BASS:
G------------------------------------------
D------------------------------------------
A-----------2-5-7-9-------------2-5-7-9----
E-7-5-2-7-------------7-5-2-7--------------
            
Submit corrections

↑ Back to top | Tablatures and chords for acoustic guitar and electric guitar, ukulele, drums are parodies/interpretations of the original songs. You may use it for private study, scholarship, research or language learning purposes only