Home » S » Snfu »

Snfu - A Hole In Your Soul Tabs

Artists:  A B C D E F G H I J K L M N O P Q R S T U V W X Y Z # 

A Hole In Your Soul Tabs

(ver. 1) Click to play this song!
Snfu
[Intro]
eb|-------------------------------------------------|-------------------------------------------------|
Bb|-------------------------------------------------|-------------------------------------------------|
Gb|-------------------------------------------------|-------------------------------------------------|
Db|-------------------------------------------------|4-4-4-4-4-4-4-4-4-4-4-4--------------------------|
Ab|2-2-2-2-2-2-2-4-4-4-4-4--------------------------|2-2-2-2-2-2-2-2-2-2-2-2--------------------------|
Eb|0-0-0-0-0-0-0-2-2-2-2-2--------------------------|-------------------------------------------------|
 
eb|------5------------------------------------------|------5------------------------------------------|
Bb|----4---4~---------------------------------------|----4---4~---------------------------------------|
Gb|/4~----------------------------------------------|/4~----------------------------------------------|
Db|-------------------------------------------------|-------------------------------------------------|
Ab|-------------------------------------------------|-------------------------------------------------|
Eb|-------------------------------------------------|-------------------------------------------------|
 
[Verse 1]
eb|-------------------------------------------------|-------------------------------------------------|
Bb|-------------------------------------------------|-------------------------------------------------|
Gb|/4~----------------------------------------------|(4)----------------------------------------------|
Db|-------------------------------------------------|-------------------------------------------------|
Ab|-------------------------------------------------|-------------------------------------------------|
Eb|-------------------------------------------------|-------------------------------------------------|
 
eb|-------------------------------------------------|-------------------------------------------------|
Bb|-------------------------------------------------|-------------------------------------------------|
Gb|(4)----------------------------------------------|------------4b6~---------------------------------|
Db|-------------------------------------------------|-------------------------------------------------|
Ab|-------------------------------------------------|4-4-4-4-4-4--------------------------------------|
Eb|-----PSDown--------------------------------------|2-2-2-2-2-2--------------------------------------|
 
eb|-------------------------------------------------|-------------------------------------------------|
Bb|-------------------------------------------------|-------------------------------------------------|
Gb|-------------------------------------------------|-------------------------------------------------|
Db|4-4-4-4-4-2-2-2-2-2-1-1-1-1-1--------------------|-------------------------------------------------|
Ab|2-2-2-2-2-2-2-2-2-2-2-2-2-2-2--------------------|2-2-2-2-2-4-4-4-4-4-2-2-2-2-2--------------------|
Eb|-------------------------------------------------|0-0-0-0-0-0-0-0-0-0-0-0-0-0-0--------------------|
   m-----------------------------------------------------------------------------]
 
eb|-------------------------------------------------|-------------------------------------------------|
Bb|-------------------------------------------------|-------------------------------------------------|
Gb|-------------------------------------------------|--------------------4b6~-------------------------|
Db|4-4-4-4-4-4-4-4-4-4-4-4-4-4-4--------------------|-------------------------------------------------|
Ab|2-2-2-2-2-2-2-2-2-2-2-2-2-2-2--------------------|4-4-4-4-4-4-4-4-4-4------------------------------|
Eb|-------------------------------------------------|2-2-2-2-2-2-2-2-2-2------------------------------|
   m-------------------------------------------------------------------]
 
[Chorus 1]
eb|-------------------------------------------------|-------------------------------------------------|
Bb|-------------------------------------------------|-------------------------------------------------|
Gb|------6/8\6-------6/8\6--------------------------|--------8\6--------------------------------------|
Db|4-4-4--------------------------------------------|------------4-4-2-4-4-4--------------------------|
Ab|2-2-2-4/6\4-4-4-4-4/6\4--------------------------|--------6\4-2-2-2-2-2-2--------------------------|
Eb|------------2-2-2--------------------------------|0-0-0-0------------------------------------------|
 
eb|-------------------------------------------------|-------------------------------------------------|
Bb|-------------------------------------------------|-------------------------------------------------|
Gb|-------------------------------------------------|-------------------------------------------------|
Db|2-4-4-4-4-4-4------------------------------------|-------------------------------------------------|
Ab|2-2-2-2-2-2-2-4-4-4-4-4-4-4-4-4-4-4-4-4-4-4-4----|-------------------------------------------------|
Eb|--------------2-2-2-2-2-2-2-2-2-2-2-2-2-2-2-2----|0-0-0-0-0-0-0-0-0-0-0-0-0-0-0-0-0-0-0-0-0-0-0-0-0|
                 m-----------------------------]       m m   m m   m m   m m   m m m m   m m m m   m m
 
eb|-------------------------------------------------|-------------------------------------------------|
Bb|-------------------------------------------------|-------------------------------------------------|
Gb|------6/8\6-------6/8\6--------------------------|------6/8\6--------------------------------------|
Db|4-4-4--------------------------------------------|------------4-4-4-4-4-4--------------------------|
Ab|2-2-2-4/6\4-4-4-4-4/6\4--------------------------|------4/6\4-2-2-2-2-2-2--------------------------|
Eb|------------2-2-2--------------------------------|0-0-0--------------------------------------------|
 
eb|-------------------------------------------------|-------------------------------------------------|
Bb|-------------------------------------------------|-------------------------------------------------|
Gb|-------------------------------------------------|--------------6-4--------------------------------|
Db|--------2h4-2--------4h6-4-----------------------|4-4-2-4-4-4-4------------------------------------|
Ab|2-2-2-2------4-4-4-4-----------------------------|2-2-2-2-2-2-2-4-2--------------------------------|
Eb|0-0-0-0------2-2-2-2-----------------------------|-------------------------------------------------|
     m m m a   a  m m m a   a
 
[Verse 2]
eb|----5--------------------------------------------|(5)----------------------------------------------|
Bb|-------------------------------------------------|-------------------------------------------------|
Gb|/4-(4)-------------------------------------------|(4)----------------------------------------------|
Db|-------------------------------------------------|-------------------------------------------------|
Ab|-------------------------------------------------|-------------------------------------------------|
Eb|-------------------------------------------------|-------------------------------------------------|
 
eb|(5)----------------------------------------------|-------------------------------------------------|
Bb|-------------------------------------------------|-------------------------------------------------|
Gb|(4)----------------------------------------------|------------4b6~---------------------------------|
Db|-------------------------------------------------|-------------------------------------------------|
Ab|-------------------------------------------------|4-4-4-4-4-4--------------------------------------|
Eb|---PSDown----------------------------------------|2-2-2-2-2-2--------------------------------------|
 
eb|-------------------------------------------------|-------------------------------------------------|
Bb|-------------------------------------------------|-------------------------------------------------|
Gb|-------------------------------------------------|-------------------------------------------------|
Db|4-4-4-4-4-2-2-2-2-2-1-1-1-1-1--------------------|-------------------------------------------------|
Ab|2-2-2-2-2-2-2-2-2-2-2-2-2-2-2--------------------|2-2-2-2-2-4-4-4-4-4-2-2-2-2-2--------------------|
Eb|-------------------------------------------------|0-0-0-0-0-0-0-0-0-0-0-0-0-0-0--------------------|
   m-----------------------------------------------------------------------------]
 
eb|-------------------------------------------------|-------------------------------------------------|
Bb|-------------------------------------------------|-------------------------------------------------|
Gb|-------------------------------------------------|--------------------4b6~-------------------------|
Db|4-4-4-4-4-4-4-4-4-4-4-4-4-4-4--------------------|-------------------------------------------------|
Ab|2-2-2-2-2-2-2-2-2-2-2-2-2-2-2--------------------|4-4-4-4-4-4-4-4-4-4------------------------------|
Eb|-------------------------------------------------|2-2-2-2-2-2-2-2-2-2------------------------------|
   m--------------------------------------------------------------------]
 
[Chorus 2]
eb|-------------------------------------------------|-------------------------------------------------|
Bb|-------------------------------------------------|-------------------------------------------------|
Gb|------6/8\6-------6/8\6--------------------------|----------6--------------------------------------|
Db|4-4-4--------------------------------------------|------------4-4-4-2-4-4--------------------------|
Ab|2-2-2-4/6\4-4-4-4-4/6\4--------------------------|----------4-2-2-2-2-2-2--------------------------|
Eb|------------2-2-2--------------------------------|0-0-0--------------------------------------------|
 
eb|-------------------------------------------------|-------------------------------------------------|
Bb|-------------------------------------------------|-------------------------------------------------|
Gb|-------------------------------------------------|-------------------------------------------------|
Db|4-4-4-4-4-4-4------------------------------------|-------------------------------------------------|
Ab|2-2-2-2-2-2-2-4-4-4-4-4-4-4-4-4-4-4-4-4-4-4-4----|-------------------------------------------------|
Eb|--------------2-2-2-2-2-2-2-2-2-2-2-2-2-2-2-2----|0-0-0-0-0-0-0-0-0-0-0-0-0-0-0-0-0-0-0-0-0-0-0-0-0
                 m-----------------------------]       m m   m m   m m   m m   m m m m   m m m m   m m
 
eb|-------------------------------------------------|-------------------------------------------------|
Bb|-------------------------------------------------|-------------------------------------------------|
Gb|------6/8\6-------6/8\6--------------------------|------6/8\6--------------------------------------|
Db|4-4-4--------------------------------------------|------------4-4-4-2-4-4--------------------------|
Ab|2-2-2-4/6\4-4-4-4-4/6\4--------------------------|------4/6\4-2-2-2-2-2-2--------------------------|
Eb|------------2-2-2--------------------------------|0-0-0--------------------------------------------|
 
eb|-------------------------------------------------|-------------------------------------------------|
Bb|-------------------------------------------------|-------------------------------------------------|
Gb|-------------------------------------------------|--------------6-4--------------------------------|
Db|--------2h4-2--------4h6-4-----------------------|4-4-4-2-4-4-4------------------------------------|
Ab|2-2-2-2------4-4-4-4-----------------------------|2-2-2-2-2-2-2-4-2--------------------------------|
Eb|0-0-0-0------2-2-2-2-----------------------------|-------------------------------------------------|
     m m m a   a  m m m a   a
 
[Solo]
eb|-------------------------------------------------|-------------------------------------------------|
Bb|-------------------------------------------------|-------------------------------------------------|
Gb|-------------------------------------------------|-------------------------------------------------|
Db|-------------------------------------------------|-------------------------------------------------|
Ab|-------------------------------------------------|-------------------------------------------------|
Eb|/7-7-7-7-7-7-7/9-9-9-9-9-9-----------------------|/11-11-11-11-11-11-/12-12-12-12-12-12------------|
 
eb|-------------------------------------------------|-------------------------------------------------|
Bb|-------------------------------------------------|14p12----12h14p12-12h14p12-12h14-14b16~-14-14----|
Gb|-----------------11-13---------------------------|------11-----------------------------------------|
Db|---------9-11-13---------------------------------|-------------------------------------------------|
Ab|/9-11-13-----------------------------------------|-------------------------------------------------|
Eb|-------------------------------------------------|-------------------------------------------------|
 
eb|------16---------------------------------------|---------------------------------------------------|
Bb|14b16----14b16~-14-----------------------------|---------------------------------------------------|
Gb|-----------------------------------------------|16-13-16-13-16-16p15p13-16p15p13-16-16~-13-13-16-13|
Db|-----------------------------------------------|---------------------------------------------------|
Ab|-----------------------------------------------|---------------------------------------------------|
Eb|-----------------------------------------------|---------------------------------------------------|
 
eb|---------------14p11----14-11-14-14b16r14~-14-19p16p14-|16h19p16-16h19----16h19p16-16h19b21~-------|
Bb|------12-14b16-------14--------------------------------|---------------16--------------------------|
Gb|11h13--------------------------------------------------|-------------------------------------------|
Db|-------------------------------------------------------|-------------------------------------------|
Ab|-------------------------------------------------------|-------------------------------------------|
Eb|-------------------------------------------------------|-------------------------------------------|
 
[Chorus 3]
eb|-------------------------------------------------|-------------------------------------------------|
Bb|-------------------------------------------------|-------------------------------------------------|
Gb|--6/8\6---6/8\6----------------------------------|-------------------------------------------------|
Db|4------------------------------------------------|--4----------------------------------------------|
Ab|2-4/6\4-4-4/6\4----------------------------------|2-2----------------------------------------------|
Eb|--------2----------------------------------------|0------------------------------------------------|
 
eb|-------------------------------------------------|-------------------------------------------------|
Bb|-------------------------------------------------|-------------------------------------------------|
Gb|-------------------------------------------------|-------------------------------------------------|
Db|-------------------------------------------------|-------------------------------------------------|
Ab|2------------------------------------------------|-4-----------------------------------------------|
Eb|0------------------------------------------------|-2-PSDown----------------------------------------|
 
eb|-------------------------------------------------|-------------------------------------------------|
Bb|-------------------------------------------------|-------------------------------------------------|
Gb|------6/8\6-------6/8\6--------------------------|------6/8\6--------------------------------------|
Db|4-4-4--------------------------------------------|------------4-4-4-4-4-4--------------------------|
Ab|2-2-2-4/6\4-4-4-4-4/6\4--------------------------|------4/6\4-2-2-2-2-2-2--------------------------|
Eb|------------2-2-2--------------------------------|0-0-0--------------------------------------------|
 
eb|-------------------------------------------------|-------------------------------------------------|
Bb|-------------------------------------------------|-------------------------------------------------|
Gb|-------------------------------------------------|-------------------------------------------------|
Db|--------2h4-2--------4h6-4-----------------------|4-4-4-2-4-4-4-4-4-4-4-4--------------------------|
Ab|2-2-2-2------4-4-4-4-----------------------------|2-2-2-2-2-2-2-2-2-2-2-2--------------------------|
Eb|0-0-0-0------2-2-2-2-----------------------------|-------------------------------------------------|
     m m m a   a  m m m a   a
 
eb|-------------------------------------------------|-------------------------------------------------|
Bb|-------------------------------------------------|-------------------------------------------------|
Gb|-------------------------------------------------|-------------------------------------------------|
Db|--------2h4-2--------4h6-4-----------------------|4-4-4-2-4-4-2-4-4-2-4-4--------------------------|
Ab|2-2-2-2------4-4-4-4-----------------------------|2-2-2-2-2-2-2-2-2-2-2-2--------------------------|
Eb|0-0-0-0------2-2-2-2-----------------------------|-------------------------------------------------|
     m m m a   a  m m m a   a
 
eb|-------------------------------------------------|-------------------------------------------------|
Bb|-------------------------------------------------|-------------------------------------------------|
Gb|-------------------------------------------------|-------------------------------------------------|
Db|-------------------------------------------------|4------------------------------------------------|
Ab|2-4----------------------------------------------|2------------------------------------------------|
Eb|0-2----------------------------------------------|-------------------------------------------------|
 
eb|-------------------------------------------------|-------------------------------------------------|
Bb|-------------------------------------------------|-------------------------------------------------|
Gb|-------------------------------------------------|-------------------------------------------------|
Db|-------------------------------------------------|-------------------------------------------------|
Ab|(4)----------------------------------------------|(4)-PSDown-4-------------------------------------|
Eb|(2)----------------------------------------------|(2)--------2-------------------------------------|
            
Submit corrections

↑ Back to top | Tablatures and chords for acoustic guitar and electric guitar, ukulele, drums are parodies/interpretations of the original songs. You may use it for private study, scholarship, research or language learning purposes only