Home » S » Smokey Robinson And The Miracles »

Smokey Robinson And The Miracles - I Heard It Through The Grapevine Bass

Artists:  A B C D E F G H I J K L M N O P Q R S T U V W X Y Z # 

I Heard It Through The Grapevine Bass

(ver. 1) Click to play this song!
Smokey Robinson And The Miracles
Tuning: EADG
 
G|----------------------------------------------------------------|
D|1-----------1---4-------1---------------1---1---4---3-------1---|
A|----------------------------------------------------------------|
E|----------------------------------------------------------------|
 
G|----------------------------------------------------------------|
D|------------1---4-------1---------------1---1---4---3-------1---| x2
A|----------------------------------------------------------------|
E|----------------------------------------------------------------|
 
G|----------------------------------------------------------------|
D|------------1---4-------1---------------------------1-----------|
A|----------------------------------------1---1---4-----------4---|
E|----------------------------------------------------------------|
 
0:17
 
G|----------------------------------------------------------------|
D|1-----------1---4-------1---------------1---1---4---3-----------|
A|------------------------------------------------------------0---|
E|----------------------------------------------------------------|
 
G|----------------3-------1---------------------------------------|
D|------------3-----------------------0---------------1-----------|
A|1---------------------------------------1---1---4-----------4---|
E|----------------------------------------------------------------|
 
G|------------------------------------------------------------1---|
D|1-----------1---4-------1---------------1---1---4---3-----------|
A|----------------------------------------------------------------|
E|----------------------------------------------------------------|
 
G|3-----------0---3-------1-----------------------1---------------|
D|----------------------------------------1---1-------1-----------|
A|--------------------------------------------------------2-------|
E|----------------------------------------------------------------|
 
0:32
 
G|----------------------------1-----------------------1-----------|
D|------------------------1---------------1---1---4-----------0---|
A|3-----------3---3-----------------------------------------------|
E|----------------------------------------------------------------|
 
G|------------------------0---1-----------------------1-------3---|
D|1-----------1---4-----------------------1---1---4---------------|
A|----------------------------------------------------------------|
E|----------------------------------------------------------------|
 
G|----------------1-----------------------------------1-----------|
D|1-----------1-----------1---------------1---1---4-----------4---|
A|----------------------------------------------------------------|
E|----------------------------------------------------------------|
 
G|1-----------1-----------1---------------------------------------|
D|----------------4-------------------0-------0-------0-------1---|
A|----------------------------------------1-------4---------------|
E|----------------------------------------------------------------|
 
0:47
 
G|----------------1-----------------------------------1-------1---|
D|------------1-----------1---------------1---1---4-------4-------|
A|----------------------------------------------------------------|
E|----------------------------------------------------------------|
 
G|------------1-----------1---------------------------1-----------|
D|----------------4-----------------------1---1---4-----------0---|
A|----------------------------------------------------------------|
E|----------------------------------------------------------------|
 
G|----------------------------------------------------------------|
D|1-----------1---4-------1---------------1---1---4---3-------1---|
A|----------------------------------------------------------------|
E|----------------------------------------------------------------|
 
G|----------------------------------------------------------------|
D|------------1---4-------1---------------------------1-------1---|
A|------------------------------------0---1---1---4---------------|
E|----------------------------------------------------------------|
 
1:01
 
G|----------------------------------------------------1-------2---|
D|------------1---4-------1---------------1---1---4---------------|
A|----------------------------------------------------------------|
E|----------------------------------------------------------------|
 
G|3---------------3-------1---------------------------------------|
D|------------3-----------------------0---------------1-----------|
A|----------------------------------------1---1---4-----------3---|
E|----------------------------------------------------------------|
 
G|----------------------------------------------------1-------3---|
D|1-----------1---4-------1---------------1---1---4-------3-------|
A|----------------------------------------------------------------|
E|----------------------------------------------------------------|
 
G|------------0---3-------1-----------------------1---------------|
D|----------------------------------------1-----------1-----------|
A|--------------------------------------------------------2-------|
E|----------------------------------------------------------------|
 
1:16
 
G|----------------------------1-----------------------1-----------|
D|--------------------1-------------------1---1---4-----------0---|
A|3---------------3-----------------------------------------------|
E|----------------------------------------------------------------|
 
G|------------------------0---1-----------------------1-------3---|
D|1---------------1---4-------------------1-------4---------------|
A|----------------------------------------------------------------|
E|----------------------------------------------------------------|
 
G|----------------1-----------------------------------1-------1---|
D|1-----------1-----------1---------------1---1---4-------4-------|
A|----------------------------------------------------------------|
E|----------------------------------------------------------------|
 
G|------------1-----------1---------------------------------------|
D|----------------4-------------------0-------------------0-------|
A|----------------------------------------1---1---4---------------|
E|----------------------------------------------------------------|
 
1:31
 
G|----------------1-----------------------------------1-------1---|
D|1-----------1-----------1---------------1---1---4-------4-------|
A|----------------------------------------------------------------|
E|----------------------------------------------------------------|
 
G|------------1-----------1---------------------------1-----------|
D|----------------4-----------------------1---1---4-----------0---|
A|----------------------------------------------------------------|
E|----------------------------------------------------------------|
 
G|----------------------------------------------------------------|
D|1-----------1---4-------1---------------1---1---4---3-------1---|
A|----------------------------------------------------------------|
E|----------------------------------------------------------------|
 
G|----------------------------------------------------------------|
D|------------1---4-------1---------------1---1---4---3-------1---| x2
A|----------------------------------------------------------------|
E|----------------------------------------------------------------|
 
G|----------------------------------------------------1-----------|
D|------------1---4-------1---------------1---1---4---------------|
A|------------------------------------------------------------1---|
E|----------------------------------------------------------------|
 
1:54
 
G|----------------------------------------------------1-------2---|
D|1-----------1---4-------1---------------1---1---4---------------|
A|----------------------------------------------------------------|
E|----------------------------------------------------------------|
 
G|3---------------3-------1---------------------------------------|
D|------------3---------------------------------------1-----------|
A|------------------------------------0---1---1---4-----------4---|
E|----------------------------------------------------------------|
 
G|------------------------------------------------------------2---|
D|1-----------1---4-------1---------------1---1---4---1-----------|
A|----------------------------------------------------------------|
E|----------------------------------------------------------------|
 
G|3---------------3-------1---------------1-----------1-----------|
D|------------3-----------------------1-----------1---------------|
A|--------------------------------------------------------2---3---|
E|----------------------------------------------------------------|
 
2:09
 
G|----------------------------1-----------------------1-----------|
D|--------------------1-------------------1---1---4-----------0---|
A|----------------3-----------------------------------------------|
E|----------------------------------------------------------------|
 
G|--------------------1-------1-----------------------1-------3---|
D|1-----------1---4-------4---------------1---1---4---------------|
A|----------------------------------------------------------------|
E|----------------------------------------------------------------|
 
G|----------------1-----------------------------------------------|
D|1-----------1-----------1---------------------------1---4---1---|
A|------------------------------------0---1---1---4---------------|
E|----------------------------------------------------------------|
 
G|1-----------1-------1---------------------------1---------------|
D|----------------4---------------1-------4---1---------------0---|
A|----------------------------------------------------1---3-------|
E|----------------------------------------------------------------|
 
2:24
 
G|----------------1-----------------------------------1-----------|
D|1-----------1-----------1---------------1---1---4-----------4---|
A|----------------------------------------------------------------|
E|----------------------------------------------------------------|
 
G|1-----------1-----------1---------------------------------------|
D|----------------4-----------------------1---1---4---3-------1---|
A|----------------------------------------------------------------|
E|----------------------------------------------------------------|
 
G|----------------------------------------------------------------|
D|------------1---4-------1---------------1---1---4---3-------0---|
A|----------------------------------------------------------------|
E|----------------------------------------------------------------|
 
G|----------------------------------------------------------------|
D|1-----------1---4-------1---------------------------1-----------|
A|------------------------------------0---1---1---4-----------4---|
E|----------------------------------------------------------------|
 
2:38 Until fadeout.
 
G|----------------------------------------------------------------|
D|1-----------1---4-------1---------------1---1---4---3-------1---|
A|----------------------------------------------------------------|
E|----------------------------------------------------------------|
 
G|----------------------------------------------------------------|
D|------------1---4-------1---------------------------1-----------|
A|------------------------------------0---1---1---4-----------4---|
E|----------------------------------------------------------------|
 
G|----------------------------------------------------------------|
D|1-----------1---4-------1---------------1---1---4---3-------1---|
A|----------------------------------------------------------------|
E|----------------------------------------------------------------|
 
G|----------------------------------------------------------------|
D|------------1---4-------1-------------------0-------0-------1---|
A|------------------------------------0---1-------4---------------|
E|----------------------------------------------------------------|
 
G|----------------------------------------------------------------|
D|------------1---4-------1---------------1---1---4---3-------0---|
A|----------------------------------------------------------------|
E|----------------------------------------------------------------|
            
Submit corrections

↑ Back to top | Tablatures and chords for acoustic guitar and electric guitar, ukulele, drums are parodies/interpretations of the original songs. You may use it for private study, scholarship, research or language learning purposes only