Home » S » Smile Empty Soul »

Smile Empty Soul - Swim Tabs

Artists:  A B C D E F G H I J K L M N O P Q R S T U V W X Y Z # 

Swim Tabs

(ver. 1) Click to play this song!
Smile Empty Soul
 Rating:
4.3/5 (13 votes)
                [Intro]
C#|------------------|------------------|-----------------|--------------------|
G#|------------------|------------------|-----------------|--------------------|
E |-9---9-9-7-10-9-7-|-9---9-9-7-10-9-7-|-7-----7-----7---|--9------9------9---|
B |-0---0-0-0--0-0-0-|-0---0-0-0--0-0-0-|-8-----8-----8---|-10-----10-----10---|
F#|-0---0-0-0--0-0-0-|-0---0-0-0--0-0-0-|-8-----8-----8---|-10-----10-----10---|
B |-0---0-0-0--0-0-0-|-0---0-0-0--0-0-0-|-8-----8-----8---|-10-----10-----10---|
 
    |_|_|_| |__|_|_|   |_|_|_| |__|_|_|   |_|_|_| |_|_|_|    |_|_|__| |_|__|_|
 
 
 
C#|------------------|------------------|-----------------|--------------------|
G#|------------------|------------------|-----------------|--------------------|
E |-9---9-9-7-10-9-7-|-9---9-9-7-10-9-7-|-7-----7-----7---|--9------9------9---|
B |-0---0-0-0--0-0-0-|-0---0-0-0--0-0-0-|-8-----8-----8---|-10-----10-----10---|
F#|-0---0-0-0--0-0-0-|-0---0-0-0--0-0-0-|-8-----8-----8---|-10-----10-----10---|
B |-0---0-0-0--0-0-0-|-0---0-0-0--0-0-0-|-8-----8-----8---|-10-----10-----10---|
 
    |_|_|_| |__|_|_|   |_|_|_| |__|_|_|   |_|_|_| |_|_|_|    |_|_|__| |_|__|_|
 
 
 
C#|------------------|------------------|------------------|---------------------|
G#|------------------|------------------|------------------|---------------------|
E |-9---9-7-10-9-7-9-|---9-9-7-10-9-7-7-|---7-7---7-7----9-|----9--9----9--9---9-|
B |-0---0-0--0-0-0-0-|---0-0-0--0-0-0-8-|---8-8---8-8---10-|---10-10---10-10---0-|
F#|-0---0-0--0-0-0-0-|---0-0-0--0-0-0-8-|---8-8---8-8---10-|---10-10---10-10---0-|
B |-0---0-0--0-0-0-0-|---0-0-0--0-0-0-8-|---8-8---8-8---10-|---10-10---10-10---0-|
 
    |_|_|_|  |_|_|_|   |_|_|_|  |_|_|_|   |_|_|_| |_|_|__|   |__|__|_|  |__|_|_|
 
 
 
C#|------------------|------------------|------------------|---------------------|
G#|------------------|------------------|------------------|---------------------|
E |---9-9-7-10-9-7-9-|---9-9-7-10-9-7-7-|---7-7---7-7----9-|----9--9----9--9---9-|
B |---0-0-0--0-0-0-0-|---0-0-0--0-0-0-8-|---8-8---8-8---10-|---10-10---10-10---0-|
F#|---0-0-0--0-0-0-0-|---0-0-0--0-0-0-8-|---8-8---8-8---10-|---10-10---10-10---0-|
B |---0-0-0--0-0-0-0-|---0-0-0--0-0-0-8-|---8-8---8-8---10-|---10-10---10-10---0-|
 
    |_|_|_|  |_|_|_|   |_|_|_|  |_|_|_|   |_|_|_| |_|_|__|   |__|__|_|  |__|_|_|
 
 
 
[Verse 1]
C#|------------------|------------------|------------------|------------------|
G#|------------------|------------------|------------------|------------------|
E |---9-9-7-10-9-7-9-|---9-9-7-10-9-7-7-|-----------7----9-|------------9---9-|
B |---0-0-0--0-0-0-0-|---0-0-0--0-0-0-8-|-----------8---10-|-----------10---0-|
F#|---0-0-0--0-0-0-0-|---0-0-0--0-0-0-8-|-----------8---10-|-----------10---0-|
B |---0-0-0--0-0-0-0-|---0-0-0--0-0-0-8-|-----------8---10-|-----------10---0-|
 
    |_|_|_|  |_|_|_|   |_|_|_|  |_|_|_|   |_|_|_| |_|_|__|   |_|_|_| |__|_|_|
 
 
 
C#|------------------|------------------|------------------|-------------------|
G#|------------------|------------------|------------------|-------------------|
E |---9-9-7-10-9-7-9-|---9-9-7-10-9-7-7-|-----------7----9-|------9----------9-|
B |---0-0-0--0-0-0-0-|---0-0-0--0-0-0-8-|-----------8---10-|-----10----------0-|
F#|---0-0-0--0-0-0-0-|---0-0-0--0-0-0-8-|-----------8---10-|-----10----------0-|
B |---0-0-0--0-0-0-0-|---0-0-0--0-0-0-8-|-----------8---10-|-----10----------0-|
 
    |_|_|_|  |_|_|_|   |_|_|_| |_|_|_|    |_|_|_| |_|_|__|   |_|__|_| |_|_|_|
 
 
 
C#|-----------------|-----------------|-----------------|-----------------|
G#|-----------------|-----------------|-----------------|-----------------|
E |-----------------|-----------------|---------------5-|---5-5---5-5-5---|
B |-----0---X-X-X-0-|---0-0---0-0-0-3-|---3-3---3-3-3-5-|---5-5---5-5-5-0-|
F#|-----0---X-X-X-0-|---0-0---0-0-0-3-|---3-3---3-3-3-3-|---3-3---3-3-3-0-|
B |-----0---X-X-X-0-|---0-0---0-0-0-3-|---3-3---3-3-3---|---------------0-|
 
    |_|_|_| |_|_|_|   |_|_|_| |_|_|_|   |_|_|_| |_|_|_|   |_|_|_| |_|_|_|
 
 
 
C#|-----------------|-----------------|-----------------|-----------------|
G#|-----------------|-----------------|-----------------|-----------------|
E |-----------------|-----------------|---------------5-|---5-5---5-------|
B |-----0---X-X-X-0-|---0-0---0-0-0-3-|---3-3---3-3-3-5-|---5-5---5-------|
F#|-----0---X-X-X-0-|---0-0---0-0-0-3-|---3-3---3-3-3-3-|---3-3---3-------|
B |-----0---X-X-X-0-|---0-0---0-0-0-3-|---3-3---3-3-3---|-----------------|
 
    |_|_|_| |_|_|_|   |_|_|_| |_|_|_|   |_|_|_| |_|_|_|   |_|_|_| |_|_|_|
 
 
 
[Chorus 1]
C#|-----------------|-----------------|-----------------|-----------------|
G#|-----------------|-----------------|-----------------|-----------------|
E |-----------------|-----------------|---------------5-|---5-5---5---5-5-|
B |-0-------0-----8-|---8-8---8---8-8-|-3-------3-----5-|---5-5---5---5-5-| x3
F#|-0-------0-----8-|---8-8---8---8-8-|-3-------3-----3-|---3-3---3---3-3-|
B |-0-------0-----8-|---8-8---8---8-8-|-3-------3-------|-----------------|
 
    |_|_|_| |_|_|_|   |_|_|_| |_|_|_|   |_|_|_| |_|_|_|   |_|_|_| |_|_|_|
 
 
 
C#|-----------------|-----------------|-----------------|-----------------|
G#|-----------------|-----------------|-----------------|-----------------|
E |-----------------|-----------------|-----------------|---------------9-|
B |-0-------0-----8-|---8-8---8---8-8-|-3-------3-----7-|---7-7---7-----0-|
F#|-0-------0-----8-|---8-8---8---8-8-|-3-------3-----7-|---7-7---7-----0-|
B |-0-------0-----8-|---8-8---8---8-8-|-3-------3-----7-|---7-7---7-----0-|
 
    |_|_|_| |_|_|_|   |_|_|_| |_|_|_|   |_|_|_| |_|_|_|   |_|_|_| |_|_|_|
 
 
 
[Bridge to Verse 2]
C#|------------------|------------------|------------------|---------------------|
G#|------------------|------------------|------------------|---------------------|
E |---9-9-7-10-9-7-9-|---9-9-7-10-9-7-7-|---7-7---7-7----9-|----9--9----9--9---9-|
B |---0-0-0--0-0-0-0-|---0-0-0--0-0-0-8-|---8-8---8-8---10-|---10-10---10-10---0-|
F#|---0-0-0--0-0-0-0-|---0-0-0--0-0-0-8-|---8-8---8-8---10-|---10-10---10-10---0-|
B |---0-0-0--0-0-0-0-|---0-0-0--0-0-0-8-|---8-8---8-8---10-|---10-10---10-10---0-|
 
    |_|_|_|  |_|_|_|   |_|_|_|  |_|_|_|   |_|_|_| |_|_|__|   |__|__|_|  |__|_|_|
 
 
 
[Verse 2]
C#|------------------|------------------|------------------|------------------|
G#|------------------|------------------|------------------|------------------|
E |---9-9-7-10-9-7-9-|---9-9-7-10-9-7-7-|-----------7----9-|------------9---9-|
B |---0-0-0--0-0-0-0-|---0-0-0--0-0-0-8-|-----------8---10-|-----------10---0-|
F#|---0-0-0--0-0-0-0-|---0-0-0--0-0-0-8-|-----------8---10-|-----------10---0-|
B |---0-0-0--0-0-0-0-|---0-0-0--0-0-0-8-|-----------8---10-|-----------10---0-|
 
    |_|_|_|  |_|_|_|   |_|_|_|  |_|_|_|   |_|_|_| |_|_|__|   |_|_|_| |__|_|_|
 
 
 
C#|------------------|------------------|------------------|-------------------|
G#|------------------|------------------|------------------|-------------------|
E |---9-9-7-10-9-7-9-|---9-9-7-10-9-7-7-|-----------7----9-|------9----------9-|
B |---0-0-0--0-0-0-0-|---0-0-0--0-0-0-8-|-----------8---10-|-----10----------0-|
F#|---0-0-0--0-0-0-0-|---0-0-0--0-0-0-8-|-----------8---10-|-----10----------0-|
B |---0-0-0--0-0-0-0-|---0-0-0--0-0-0-8-|-----------8---10-|-----10----------0-|
 
    |_|_|_|  |_|_|_|   |_|_|_| |_|_|_|    |_|_|_| |_|_|__|   |_|__|_| |_|_|_|
 
 
 
C#|-----------------|-----------------|-----------------|-----------------|
G#|-----------------|-----------------|-----------------|-----------------|
E |-----------------|-----------------|---------------5-|---5-5---5-5-5---|
B |-----0---X-X-X-0-|---0-0---0-0-0-3-|---3-3---3-3-3-5-|---5-5---5-5-5-0-|
F#|-----0---X-X-X-0-|---0-0---0-0-0-3-|---3-3---3-3-3-3-|---3-3---3-3-3-0-|
B |-----0---X-X-X-0-|---0-0---0-0-0-3-|---3-3---3-3-3---|---------------0-|
 
    |_|_|_| |_|_|_|   |_|_|_| |_|_|_|   |_|_|_| |_|_|_|   |_|_|_| |_|_|_|
 
 
 
C#|-----------------|-----------------|-----------------|-----------------|
G#|-----------------|-----------------|-----------------|-----------------|
E |-----------------|-----------------|---------------5-|---5-5---5-------|
B |-----0---X-X-X-0-|---0-0---0-0-0-3-|---3-3---3-3-3-5-|---5-5---5-------|
F#|-----0---X-X-X-0-|---0-0---0-0-0-3-|---3-3---3-3-3-3-|---3-3---3-------|
B |-----0---X-X-X-0-|---0-0---0-0-0-3-|---3-3---3-3-3---|-----------------|
 
    |_|_|_| |_|_|_|   |_|_|_| |_|_|_|   |_|_|_| |_|_|_|   |_|_|_| |_|_|_|
 
 
 
[Chorus 2]
C#|-----------------|-----------------|-----------------|-----------------|
G#|-----------------|-----------------|-----------------|-----------------|
E |-----------------|-----------------|---------------5-|---5-5---5---5-5-|
B |-0-------0-----8-|---8-8---8---8-8-|-3-------3-----5-|---5-5---5---5-5-| x3
F#|-0-------0-----8-|---8-8---8---8-8-|-3-------3-----3-|---3-3---3---3-3-|
B |-0-------0-----8-|---8-8---8---8-8-|-3-------3-------|-----------------|
 
    |_|_|_| |_|_|_|   |_|_|_| |_|_|_|   |_|_|_| |_|_|_|   |_|_|_| |_|_|_|
 
 
 
C#|-----------------|-----------------|-----------------|-----------------|
G#|-----------------|-----------------|-----------------|-----------------|
E |-----------------|-----------------|-----------------|-----------------|
B |-0-------0-----8-|---8-8---8---8-8-|-3-------3-----7-|---7-7---7-----8-|
F#|-0-------0-----8-|---8-8---8---8-8-|-3-------3-----7-|---7-7---7-----8-|
B |-0-------0-----8-|---8-8---8---8-8-|-3-------3-----7-|---7-7---7-----8-|
 
    |_|_|_| |_|_|_|   |_|_|_| |_|_|_|   |_|_|_| |_|_|_|   |_|_|_| |_|_|_|
 
 
 
[Bridge]
C#|-----------------|-----------------|-----------------|-----------------|
G#|-----------------|-----------------|-----------------|-----------------|
E |-----------------|-----------------|-----------------|-----------------|
B |---8-8---8-8-8---|-8-8-8---8-8-8-3-|---3-3---3-3-3---|-3-3-3---3-3-3-0-|
F#|---8-8---8-8-8---|-8-8-8---8-8-8-3-|---3-3---3-3-3---|-3-3-3---3-3-3-0-|
B |---8-8---8-8-8---|-8-8-8---8-8-8-3-|---3-3---3-3-3---|-3-3-3---3-3-3-0-|
 
    |_|_|_| |_|_|_|   |_|_|_| |_|_|_|   |_|_|_| |_|_|_|   |_|_|_| |_|_|_|
 
 
 
C#|-----------------|------------------|----------------------|-----------------------|
G#|-----------------|------------------|----------------------|-----------------------|
E |-----------------|------------------|----------------------|-----------------------|
B |---0-0---0-0-0---|-0-0-0---0-0-0-10-|---10-10---10-10-10---|-10-10-10---10-10-10-8-|
F#|---0-0---0-0-0---|-0-0-0---0-0-0-10-|---10-10---10-10-10---|-10-10-10---10-10-10-8-|
B |---0-0---0-0-0---|-0-0-0---0-0-0-10-|---10-10---10-10-10---|-10-10-10---10-10-10-8-|
 
    |_|_|_| |_|_|_|   |_|_|_| |_|_|__|   |__|__|_|  |__|__|_|    |__|__|_|  |__|__|_|
 
 
 
C#|-----------------|-----------------|-----------------|-----------------|
G#|-----------------|-----------------|-----------------|-----------------|
E |-----------------|-----------------|-----------------|-----------------|
B |---8-8---8-8-8---|-8-8-8---8-8-8-3-|---3-3---3-3-3---|-3-3-3---3-3-3-0-|
F#|---8-8---8-8-8---|-8-8-8---8-8-8-3-|---3-3---3-3-3---|-3-3-3---3-3-3-0-|
B |---8-8---8-8-8---|-8-8-8---8-8-8-3-|---3-3---3-3-3---|-3-3-3---3-3-3-0-|
 
    |_|_|_| |_|_|_|   |_|_|_| |_|_|_|   |_|_|_| |_|_|_|   |_|_|_| |_|_|_|
 
 
 
C#|-----------------|------------------|---------------------|-----------------------|
G#|-----------------|------------------|---------------------|-----------------------|
E |-----------------|------------------|---------------------|-----------------------|
B |---0-0---0-0-0---|-0-0-0---0-0-0-10-|---10-10---10---10---|-10-10-10---10---10-10-|
F#|---0-0---0-0-0---|-0-0-0---0-0-0-10-|---10-10---10---10---|-10-10-10---10---10-10-|
B |---0-0---0-0-0---|-0-0-0---0-0-0-10-|---10-10---10---10---|-10-10-10---10---10-10-|
 
    |_|_|_| |_|_|_|   |_|_|_| |_|_|__|   |__|__|_|  |_|__|_|    |__|__|_|  |_|__|__|
 
 
 
[Chorus 3]
C#|-----------------|-----------------|-----------------|-----------------|
G#|-----------------|-----------------|-----------------|-----------------|
E |-----------------|-----------------|---------------5-|---------5---5-5-|
B |-0-------0---0-8-|---------8---8-8-|-3-------3---3-5-|---------5---5-5-|
F#|-0-------0---0-8-|---------8---8-8-|-3-------3---3-3-|---------3---3-3-|
B |-0-------0---0-8-|---------8---8-8-|-3-------3---3---|-----------------|
 
    |_|_|_| |_|_|_|   |_|_|_| |_|_|_|   |_|_|_| |_|_|_|   |_|_|_| |_|_|_|
 
 
 
C#|-----------------|-----------------|-----------------|-----------------|
G#|-----------------|-----------------|-----------------|-----------------|
E |-----------------|-----------------|---------------5-|-----------------|
B |-0-------0---0-8-|---------8---8-8-|-3-------3---3-5-|-----------------|
F#|-0-------0---0-8-|---------8---8-8-|-3-------3---3-3-|-----------------|
B |-0-------0---0-8-|---------8---8-8-|-3-------3---3---|-----------------|
 
    |_|_|_| |_|_|_|   |_|_|_| |_|_|_|   |_|_|_| |_|_|_|   |_|_|_| |_|_|_|
 
 
 
C#|-----------------|
G#|-----------------|
E |-----------------|
B |-----------------|
F#|-----------------|
B |-----------------|
 
    |_|_|_| |_|_|_|
 
 
 
C#|-----------------|-----------------|-----------------|-----------------|
G#|-----------------|-----------------|-----------------|-----------------|
E |-----------------|-----------------|---------------5-|---5-5---5---5-5-|
B |-0-------0-----8-|---8-8---8---8-8-|-3-------3-----5-|---5-5---5---5-5-| x3
F#|-0-------0-----8-|---8-8---8---8-8-|-3-------3-----3-|---3-3---3---3-3-|
B |-0-------0-----8-|---8-8---8---8-8-|-3-------3-------|-----------------|
 
    |_|_|_| |_|_|_|   |_|_|_| |_|_|_|   |_|_|_| |_|_|_|   |_|_|_| |_|_|_|
 
 
 
C#|-----------------|-----------------|-----------------|-----------------|
G#|-----------------|-----------------|-----------------|-----------------|
E |-----------------|-----------------|-----------------|---------------9-|
B |-0-------0-----8-|---8-8---8---8-8-|-3-------3-----7-|---7-7---7-----0-|
F#|-0-------0-----8-|---8-8---8---8-8-|-3-------3-----7-|---7-7---7-----0-|
B |-0-------0-----8-|---8-8---8---8-8-|-3-------3-----7-|---7-7---7-----0-|
 
    |_|_|_| |_|_|_|   |_|_|_| |_|_|_|   |_|_|_| |_|_|_|   |_|_|_| |_|_|_|
 
 
 
[Outro]
C#|------------------|------------------|------------------|---------------------|
G#|------------------|------------------|------------------|---------------------|
E |---9-9-7-10-9-7-9-|---9-9-7-10-9-7-7-|---7-7---7-7----9-|----9--9----9--9---9-|
B |---0-0-0--0-0-0-0-|---0-0-0--0-0-0-8-|---8-8---8-8---10-|---10-10---10-10---0-|
F#|---0-0-0--0-0-0-0-|---0-0-0--0-0-0-8-|---8-8---8-8---10-|---10-10---10-10---0-|
B |---0-0-0--0-0-0-0-|---0-0-0--0-0-0-8-|---8-8---8-8---10-|---10-10---10-10---0-|
 
    |_|_|_|  |_|_|_|   |_|_|_|  |_|_|_|   |_|_|_| |_|_|__|   |__|__|_|  |__|_|_|
 
 
 
C#|------------------|------------------|------------------|---------------------|
G#|------------------|------------------|------------------|---------------------|
E |---9-9-7-10-9-7-9-|---9-9-7-10-9-7-7-|---7-7---7-7----9-|----9--9----9--9-----|
B |---0-0-0--0-0-0-0-|---0-0-0--0-0-0-8-|---8-8---8-8---10-|---10-10---10-10---0-|
F#|---0-0-0--0-0-0-0-|---0-0-0--0-0-0-8-|---8-8---8-8---10-|---10-10---10-10---0-|
B |---0-0-0--0-0-0-0-|---0-0-0--0-0-0-8-|---8-8---8-8---10-|---10-10---10-10---0-|
 
    |_|_|_|  |_|_|_|   |_|_|_|  |_|_|_|   |_|_|_| |_|_|__|   |__|__|_|  |__|_|_|
            
Submit corrections

↑ Back to top | Tablatures and chords for acoustic guitar and electric guitar, ukulele, drums are parodies/interpretations of the original songs. You may use it for private study, scholarship, research or language learning purposes only