» » »

Smash Mouth - Walkin On The Sun Bass

Artists:  A B C D E F G H I J K L M N O P Q R S T U V W X Y Z # 

Walkin On The Sun Bass

(ver. 3) Click to play this song!
Smash Mouth
 Rating:
4/5 (4 votes)
                Walkin On the Sun.

Play the intro twice, the verse/chorus through the synthesizer solo,
then flip back to the intro (2x) and the chorus again until the ending
(not a bass part but sounds cool anyway.  :) happy tabbing....

Intro
G--------------------------|
D--------------------------|
A--2-4---6-4---2-4---6-4---|
E--------------------------|

Verse/Chorus
G---------------------------------------------|
D----------4-6-----------------4-6------------|
A-----2-4-------6-4--6----2-4-------6-4--6----|
E--4-------------------4-------------------4--|

Ending

G----------------------------------|
D----------------------------------|
A----------------------------------|
E--44444444444444444444444---------|
    (fade away slowly)
            
Submit corrections

↑ Back to top | Tablatures and chords for acoustic guitar and electric guitar, ukulele, drums are parodies/interpretations of the original songs. You may use it for private study, scholarship, research or language learning purposes only