» » »

Sly The Family Stone - If You Want Me To Stay Bass

Artists:  A B C D E F G H I J K L M N O P Q R S T U V W X Y Z # 

If You Want Me To Stay Bass

(ver. 1) Click to play this song!
Sly The Family Stone
 Rating:
4.3/5 (29 votes)

 If You Want Me To Stay  lessons Tabs too difficult? Try these video lessons and learn fast
 
                [Intro]

G|------------|
D|------------|
A|------------|
E|6-6-6-1-1-4-| x3

G|---------------------------------------------------------------------------|
D|-------------------------------3-4-4-4-4-4-4-4-4-6-6-6-6-----11-10---------|
A|----------------------6-4-4-4----------------------------8-8---------------|
E|6-6-6-6-6-6-6-5-4-4-4------------------------------------------------------|

G|---------------------------------------------------------------------------|
D|8-8---------------------------3-4-4-4-4-4-4-4-4-6-6-----11-11-10-10--------|
A|----------------------6-4-4-4-----------------------8-8--------------------|
E|----6-6-6-6-6-5-4-4-4------------------------------------------------------|


[Verse]

This verse riff is repeated  throughout the entire song.

G|---------------------------------------------------------------------------|
D|8-8---------------------------3-4-4-4-4-4-4-4-4-6-6-----11-11-10-10--------|
A|----------------------6-4-4-4-----------------------8-8--------------------|
E|----6-6-6-6-6-5-4-4-4------------------------------------------------------|



            
Submit corrections


        If You Want Me To Stay  lessons Hard to play? Try these video lessons and learn fast If You Want Me To Stay  lessons
        
↑ Back to top | Tablatures and chords for acoustic guitar and electric guitar, ukulele, drums are parodies/interpretations of the original songs. You may use it for private study, scholarship, research or language learning purposes only