Home » S » Sly And The Family Stone »

Sly And The Family Stone - If You Want Me To Stay Bass

Artists:  A B C D E F G H I J K L M N O P Q R S T U V W X Y Z # 

If You Want Me To Stay Bass

(ver. 2) Click to play this song!
Sly And The Family Stone
-------------------------------------------------------------------------------
              If you want me to stay - Sly and the Family Stone
-------------------------------------------------------------------------------


Tuning:

Intro:

G|---------------|
D|---------------|
A|---------------|
E|-2-456-6-66----|

Main riff (play through whole song + embellishments)

G|--------------------------------------------6-5------------------|
D|-----------------------45-5-5-5-6-6-6-6---------88---------------|
A|---------------654-4-4------------------8-8----------------------|
E|-6-6-6-64-4-4-------------------------------------6-6-6-6-6-6----|
            
Submit corrections

↑ Back to top | Tablatures and chords for acoustic guitar and electric guitar, ukulele, drums are parodies/interpretations of the original songs. You may use it for private study, scholarship, research or language learning purposes only