Home » S » Sly And The Family Stone »

Sly And The Family Stone - Dance To The Music Bass

Artists:  A B C D E F G H I J K L M N O P Q R S T U V W X Y Z # 

Dance To The Music Bass

(ver. 2) Click to play this song!
Sly And The Family Stone
 Intro 1
  Q=128
 4/4
  Gtr I
  H    E E E E   E E E E Q  E E   E E E E E E E E   E E E E e e E E
|--------------|----------------|-----------------|------------------|
|--------------|----------------|-----------------|------------------|
|--------------|----------------|-----------------|------------------|
|--------0-1-2-|-3---3---3--3-1-|-3---3---3-0-1-2-|-3---3---3-3-3-1--|


  Q  Q  E E E E   E E E E e e E E   Q  E E E E E E   E E E E E E E E
|---------------|-----------------|----------------|-----------------|
|---------------|-----------------|----------------|-----------------|
|---------------|-----------------|----------------|-----------------|
|-3--3--3-0-1-2-|-3---3---3-3-3-1-|-3--3---3-0-1-2-|-3---3---3---3-1-|


                   Intro 2  (A capella)
  E E Q  E E E E    e E Q  H      W          W
|----------------||-------------|----------|------|
|----------------||-------------|----------|------|
|----------------||-------------|----------|------|
|-3---3--3-0-1-2-||-3-----------|----------|------|


             Chorus
  W           E E E E e e E E   E E E E Q  E E   E E E E E E E E
|----------||-----------------|----------------|-----------------|
|----------||-----------------|----------------|-----------------|
|----------||-----------------|----------------|-----------------|
|----------||-3---3---3-3-3-1-|-3---3---3--3-1-|-3---3---3---3-1-|


  Q  Q  E E E E   E E E E E E E E   E E Q  e e E E   E E E E Q  E E
|---------------|-----------------|----------------|----------------|
|---------------|-----------------|----------------|----------------|
|---------------|-----------------|----------------|----------------|
|-3--3--3-0-1-2-|-3---3---3---3-1-|-3---3--3-3-3-1-|-3---3---3--3-1-|


                   1st Verse
  Q  E E E E E E    E E E E E E E E   E E E E E E E E   E E E E E E E E
|----------------||-----------------|-----------------|-----------------|
|----------------||-----------------|-----------------|-----------------|
|----------------||-----------------|-----------------|-----------------|
|-3--3---3-0-1-2-||-3---3---3---3-1-|-3---3---3---3-1-|-3---3---3---3-1-|


  E E Q  E E E E   E E Q  H      W          W
|----------------|-------------|----------|------|
|----------------|-------------|----------|------|
|----------------|-------------|----------|------|
|-3---3--3-0-1-2-|-3-----------|----------|------|


  W          W          W          W
|----------|----------|----------|------|
|----------|----------|----------|------|
|----------|----------|----------|------|
|----------|----------|----------|------|


  W          W          W          W
|----------|----------|----------|------|
|----------|----------|----------|------|
|----------|----------|----------|------|
|----------|----------|----------|------|


  W          W          W          W
|----------|----------|----------|------|
|----------|----------|----------|------|
|----------|----------|----------|------|
|----------|----------|----------|------|


  H    E E E E   E E E E e e E E   E E E E E E E E   E E E E e e E E
|--------------|-----------------|-----------------|-----------------|
|--------------|-----------------|-----------------|-----------------|
|--------------|-----------------|-----------------|-----------------|
|--------0-1-2-|-3---3---3-3-3-1-|-3---3---3-0-1-2-|-3---3---3-3-3-1-|


  e e e e e e e e   E E E E e e E E   E E E E E E E E   E E E E e e E E
|-----------------|-----------------|-----------------|-----------------|
|-----------------|-----------------|-----------------|-----------------|
|-----------------|-----------------|-----------------|-----------------|
|-3-3-3-3-3-x-3-3-|-3---3---3-3-3-1-|-3---3---3-0-1-2-|-3---3---3-3-3-1-|


  E E E E E E E E   E E E E e e E E   E E E E E E E E   E E E E e e E E
|-----------------|-----------------|-----------------|-----------------|
|-----------------|-----------------|-----------------|-----------------|
|-----------------|-----------------|-----------------|-----------------|
|-3---3---3-0-1-2-|-3---3---3-3-3-1-|-3---3---3-0-1-2-|-3---3---3-3-3-1-|


  E E E E E E E E   E E E E e e E E   E E E E E E E E   E E E E e e E E
|-----------------|-----------------|-----------------|-----------------|
|-----------------|-----------------|-----------------|-----------------|
|-----------------|-----------------|-----------------|-----------------|
|-3---3---3-0-1-2-|-3---3---3-3-3-1-|-3---3---3-0-1-2-|-3---3---3-3-3-1-|


  E E S e S S e S S e S   E E E E S S S S E E   E E E E S S S S E E
|-----------------------|---------------------|---------------------|
|-----------------0-0-0-|-1---1---1---1---1-1-|-1---1---1---1---1-1-|
|-----------2-2-2-------|---------------------|---------------------|
|-3---3-3-3-------------|---------------------|---------------------|


  E E E E S S S S E E   E E E E E E E E   E E E E E E E E
|---------------------|-----------------|-----------------|
|-1---1---1---1---1-1-|-1---1---1-------|-----------------|
|---------------------|-----------------|-----------------|
|---------------------|-----------0-1-2-|-3---3---3---3-1-|


  E E E E e e E E   E E E E e e E E   Q  Q  E E E E
|-----------------|-----------------|---------------|
|-----------------|-----------------|---------------|
|-----------------|-----------------|---------------|
|-3---3---3-3-3-1-|-3---3---3-3-3-1-|-3--3--3-0-1-2-|


  E E E E e e E E   E E E E e e E E   Q  E E e e E E
|-----------------|-----------------|----------------|
|-----------------|-----------------|----------------|
|-----------------|-----------------|----------------|
|-3---3---3-3-3-1-|-3---3---3-3-3-1-|-3--3---3-3-3-1-|


                   Interlude  (A capella)
  E E Q  E E E E    e E Q  H      W          W
|----------------||-------------|----------|------|
|----------------||-------------|----------|------|
|----------------||-------------|----------|------|
|-3---3--3-0-1-2-||-3-----------|----------|------|


  W          W          W          W          W
|----------|----------|----------|----------|------||
|----------|----------|----------|----------|------||
|----------|----------|----------|----------|------||
|----------|----------|----------|----------|------||


   Out-Chorus
    E E E E e e E E   E E E E Q  E E   E E E E E E E E   Q  Q  E E E E   4x
||------------------|----------------|-----------------|-----------------||
||o-----------------|----------------|-----------------|----------------o||
||o-----------------|----------------|-----------------|----------------o||
||--3---3---3-3-3-1-|-3---3---3--3-1-|-3---3---3---3-1-|-3--3--3-0-1-2---||            
Submit corrections

↑ Back to top | Tablatures and chords for acoustic guitar and electric guitar, ukulele, drums are parodies/interpretations of the original songs. You may use it for private study, scholarship, research or language learning purposes only