» » »

Slipknot - Liberate Tabs

Artists:  A B C D E F G H I J K L M N O P Q R S T U V W X Y Z # 

Liberate Tabs

(ver. 3) Click to play this song!
Slipknot
 Rating:
4/5 (4 votes)

 Liberate lessons Tabs too difficult? Try these video lessons and learn fast
 
                tune down 1 and 1/2 steps and drop D              *=trill   PM=Palm mute

--13-000-00000000-000---------------------------------------------------------
          repeat intro x7                                                                    

-1-0--1-0-1-0-1-0-1-0---------------------------------------------------------
-1-0--1-0-1-0-1-0-1-0---------------------------------------------------------
                                                                              
                 PM..                           
---1-0----0-1-0---5-4---------------------------------------------------------
---1-0----0-1-0---5-4--6*9*6--------------------------------------------------
                                                                              
                                                                        pm.
--1-0--0-1-0----4--3-2--0-----------1-0--0-1-0--5-4-----------1-0-0-1-0-5-4---
--1-0--0-1-0----4--3-2--0-----------1-0--0-1-0--5-4---6*9*6---1-0-0-1-0-5-4-5*8*5
                                                                              

--0-1--0-1--0-1--0-1--0-1-----------------------------------------------------
--0-1--0-1--0-1--0-1--0-1-----------------------------------------------------
                                                                              
bridge          w/phaser
---8-8-8-8-8b-----------------------------------------------------------------

--2-1--0-1------2-1--0-1------------------------------------------------------
--2-1--0-1------2-1--0-1------------------------------------------------------
            
Submit corrections


        Liberate lessons Hard to play? Try these video lessons and learn fast Liberate lessons
        
↑ Back to top | Tablatures and chords for acoustic guitar and electric guitar, ukulele, drums are parodies/interpretations of the original songs. You may use it for private study, scholarship, research or language learning purposes only