» » »

Slipknot - Killers Are Quiet Tabs

Artists:  A B C D E F G H I J K L M N O P Q R S T U V W X Y Z # 

Killers Are Quiet Tabs

(ver. 2) Click to play this song!
Slipknot
 Rating:
4/5 (4 votes)

 Killers Are Quiet lessons Tabs too difficult? Try these video lessons and learn fast
 
                Intro
C#|---------------|
G#|---------------|
E |---------------|
B |---------------|
F#|-13------------|
B |------0---2----|
                                                                              
Verse(not singing)
C#|----------------
G#|----------------
E |----------------
B |-2-2-------2-2--
F#|-2-2--1-0--2-2--
B |-2-2-------2-2--


Verse2(while singing)
C#|----------------|
G#|----------------|
E |----------------|
B |----------------|
F#|-2-2--1-0--2-2--|
B |----------------|

They just repeat the verses a lot and then go back to the intro.  Listen to the song and you'll figure it out.
            
Submit corrections


        Killers Are Quiet lessons Hard to play? Try these video lessons and learn fast Killers Are Quiet lessons
        
↑ Back to top | Tablatures and chords for acoustic guitar and electric guitar, ukulele, drums are parodies/interpretations of the original songs. You may use it for private study, scholarship, research or language learning purposes only