» » »

Slipknot - Gently Tabs

Artists:  A B C D E F G H I J K L M N O P Q R S T U V W X Y Z # 

Gently Tabs

(ver. 2) Click to play this song!
Slipknot
 Rating:
4/5 (4 votes)

 Gently lessons Tabs too difficult? Try these video lessons and learn fast
 
                Intro
/////


Tuning = (B-F#-B-E-G#-C#)

Key:
h = hammer on
p = pull off
x = dont play that string
~ = vibrato
^ = bend up
/ = slide

Part One... 

chord 

  Cm       

C#|-5--|
G#|-6--|
E |-7--|
B |-7--|
F#|-5--|
B |-x--|


   INTRO 
C#|-------------------|------------------|-----------------|
G#|-----------6P5-----|---------6--------|-----------------|
E |-----7-------------|-----7-----7---7--|-----------------|
B |---7---7-------7---|---7---7-----7----|-----7-8-8-8-7---|
F#|-5-------5-------7-|-5----------------|--0--------------|
B |-------------------|------------------|-----------------|




|-----------4/5--------|--8-8-8--6---6-----|-------------------|
|-------6--------6-----|-----------6---6---|-------------------|
|----7----7---------7--|-------------------|-------------------|
|--7-------------------|-------------------|-----7-8-8-8-7-----|
|----------------------|-------------------|---0---------------|
|----------------------|-------------------|-------------------|


REALLY PRETTY PART
|-------------------|-------------------------|--------------------|
|---------6---------|------------10-----------|---------5----------|  
|-----7-----7---7---|------10--------10----10-|-----5-----5---5----|
|---7---7-----7-----|---10----10--------10----|---5---5-----5------|
|-5-----------------|-8-----------------------|-3------------------|
|-------------------|-------------------------|--------------------|



|-------------------|-----------|-----------|  
|----5--------5-----|-----------|-----------|
|------5--------5---|-----------|-----------|
|-------------------|-----------|-----------|
|-0--------3--------|-----------|-----------|
|-------------------|-----------|-----------|

HARD PART

|-----|--------|--------------|--------|
|-----|--------|--------------|--------|
|-----|--------|--------------|--------|
|--0--|--8---8-|-8-7-(7)------|-(7)----|
|--0--|--8---8-|-8-7-(7)------|-(7)----|
|--0--|--8---8-|-8p7-(7)------|-(7)----|


Hard Part

        PM|     PM|       PM|     PM|       PM|   PM|         PM  PM----|
|-----------------|-----------------|-----------------|-----------------|
|-----------------|-----------------|-----------------|-----------------|
|-----------------|-----------------|-----------------|-----------------|
|-0-0-0-0-0-0-0-0-|-8-8-8-8-8-8-8-8-|-8-7-7-7-7-7-7-7-|-(7)-7-7-7-7-7-7-|
|-0-0-0-0-0-0-0-0-|-8-8-8-8-8-8-8-8-|-8-7-7-7-7-7-7-7-|-(7)-7-7-7-7-7-7-|
|-0-0-0-0-0-0-0-0-|-8-8-8-8-8-8-8-8-|-8-7-7-7-7-7-7-7-|-(7)-7-7-7-7-7-7-|


      PM|     PM|            PM|
|-----------------|--------|------------|----------------|
|-----------------|--------|------------|----------------|
|-----------------|-4----5-|------------|----------------|
|-1-1-1-1-1-1-1-1-|-4----5-|-5-3-7------|----------------|
|-1-1-1-1-1-1-1-1-|-2----3-|-5-3-7------|-8-7------------|
|-1-1-1-1-1-1-1-1-|--------|-5-3-7------|------8-7--1B---|


Harmony ParT

||--------------------------------------------------|
||--------------------------------------------------|
||-7--7/10---10/9----\5-----------------------------|
||--------------------------------------------------|
||-5--5/8-----8/7----\3-----------------------------|
||--------------------------------------------------|


|--------------------------------------------------|
|--------------------------------------------------|
|--9--9/12---12/11---/7----------------------------|
|--------------------------------------------------|
|--7--7/10---10/9----/5----------------------------|
|--------------------------------------------------|

..


End Hard Part-  Quicker, Two guitars, 
First time- Gtr II plays only, Gtr I comes in after that.  After 8m, Only Gtr I plays

Gtr I
   PM--|         PM|     PM|      PM--|         PM|     PM|
|--------------|---------------|--------------|---------------|
|--------------|---------------|--------------|---------------|
|--------------|---------------|--------------|---------------|
|--0-0-0-3---0-|-5-3-1---0-0-0-|--0-0-0-3---0-|-5-3-1---0-0-0-|
|--0-0-0-3---0-|-5-3-1---0-0-0-|--0-0-0-3---0-|-5-3-1---0-0-0-|
|--0-0-0-3---0-|-5-3-1---0-0-0-|--0-0-0-3---0-|-5-3-1---0-0-0-|
|
Gtr II
|  PM--|         PM|     PM|      PM--|         PM|     PM|
|--------------|---------------|--------------|---------------|
|--------------|---------------|--------------|---------------|
|--------------|---------------|--------------|---------------|
|--0-0-0-3---0-|-5-3-1---0-0-0-|--0-0-0-3---0-|-5-3-1---0-0-0-|
|--0-0-0-3---0-|-5-3-1---0-0-0-|--0-0-0-3---0-|-5-3-1---0-0-0-|
|--0-0-0-3---0-|-5-3-1---0-0-0-|--0-0-0-3---0-|-5-3-1---0-0-0-|



Screaming Part

  PM----|     PM----|     PM--|       PM--|       PM--|     PM|
|---------------|---------------|---------------|----------------
|---------------|---------------|---------------|----------------
|---------------|---------------|---------------|----------------
|-0-0-0-0-3---0-|-0-0-3---0-0-0-|-3---0-0-0-3---|-0-0-0-3---0-0--
|-0-0-0-0-3---0-|-0-0-3---0-0-0-|-3---0-0-0-3---|-0-0-0-3---0-0--
|-0-0-0-0-3---0-|-0-0-3---0-0-0-|-3---0-0-0-3---|-0-0-0-3---0-0--
            
Submit corrections


        Gently lessons Hard to play? Try these video lessons and learn fast Gently lessons
        
↑ Back to top | Tablatures and chords for acoustic guitar and electric guitar, ukulele, drums are parodies/interpretations of the original songs. You may use it for private study, scholarship, research or language learning purposes only