» » »

Slipknot - Eyeless Tabs

Artists:  A B C D E F G H I J K L M N O P Q R S T U V W X Y Z # 

Eyeless Tabs

(ver. 1) Click to play this song!
Slipknot
 Rating:
4/5 (4 votes)

 Eyeless lessons Tabs too difficult? Try these video lessons and learn fast
 
                Drop D down 1 1/2 steps
B F# B E G# C#

 song opens with mic fdbk not string vibr.                                    

-12-12-12----12----12-12-12-12-12-12-12-12-12-12-|----------------------------
----------16----16-16-16-16-16-16-16-16-16-16-16-|----------------------------
-------------------------------------------------|----------------------------
-------------------------------------------------|----------------------------
-------------------------------------------------|----------------------------
-------------------------------------------------|----------------------------
 GTR1 INTRO                                    8x                             

---------------------------|--------------------------------------|-----------
---------------------------|--------------------------------------|-----------
---------------------------|--------------------------------------|-----------
---------------------------|------------------------------------1-|-----------
--------------2---4--------|--------------2---1---------2-----1---|-----------
------0-0-0-3---3---2-0-0--|------0-0-0-3---3---2-0-0-0---0-0-----|-----------
 GTR2 PM-----|       |---|2x then PM---|         |-----| |---|                

---------------------------------|--------------------------------------------
---------------------------------|--------------------------------------------
---------------------------------|--------------------------------------------
---------------------------------|--------------------------------------------
---------3---2-3-----5-6-----6-8-|--------------------------------------------
-0-0-0-0-3-0-2-3-0-0-5-6-0-0-6-8-|--------------------------------------------
 CHORUS                  play 4x                                              

----------------------------------------|-------------------------------------
----------------------------------------|-------------------------------------
----------------------------------------|-------------------------------------
----------------------------------------|-------------------------------------
--------------------------3-------2---3-|-------------------------------------
----------0---0---0---0---3---0---2---3-|-------------------------------------
 VERSE "Insane!       Am  I  the  on-ly  muth-a-f***er  with  a  brain?  3x   

------------------------------------------------|-----------------------------
------------------------------------------------|-----------------------------
------------------------------------------------|-----------------------------
--3--3--3----3--3--3--3--3--3--3----3--3--3--3--|-----------------------------
--2--2--2----2--2--2--2--2--2--2----2--2--2--2--|-----------------------------
------------------------------------------------|-----------------------------
 BRIDGE                        "It's all in ure head...."   3x                

-------------------------|-------------------------|--------------------------
-------------------------|-------------------------|--------------------------
-------------------------|-------------------------|--------------------------
-------------------------|-------------------------|--------------------------
-0-0-0-------------------|-----------0-0-1--0-0-1--|--------------------------
-0-0-0-------------------|-----------0-0-1--0-0-1--|--------------------------
 INTER  Gtr1                                                                  

-------------------------|-------------------------|--------------------------
-------------------------|-------------------------|--------------------------
-------------------------|-------------------------|--------------------------
-------------------------|-------------------------|--------------------------
-0-0-0-----0-0-1--0-0-1--|-0-0-0-----0-0-1--0-0-1--|--------------------------
-0-0-0-3*--0-0-1--0-0-1--|-0-0-0-3*--0-0-1--0-0-1--|--------------------------
 Gtr2                                                                         

-------------------------|----------------------------------------------------
-------------------------|----------------------------------------------------
-------------------------|----------------------------------------------------
-------------------------|----------------------------------------------------
-0-0-0-----0-0-1--0-0-1--|--0-0-0---------------------------------------------
-0-0-0-3*--0-0-1--0-0-1--|--0-0-0-3^--------3---------------------------------
 both Gtrs           x3 then       +o +o +o    ^=grad release w/ wah          

------------------|-----------------------------|------|----------------------
------------------|-----------------------------|------|----------------------
------------------|-----------------------------|------|----------------------
------------------|-----------------------------|------|----------------------
------------------|-----------------------------|------|----------------------
------------------|-0--------4--------1---2-----|------|-0-0-0-0-0-0-0-0-4-4--
 +=closed  o=open  INTER2 gtr 1 with intro riff x4 then  PM------------------ 

---------------------------------------------|--------------------------------
---------------------------------------------|--------------------------------
---------------------------------------------|--------------------------------
---------------------------------------------|--------------------------------
---------------------------------------------|--------------------------------
-4-4-4-4-4-4-1-1-1-1-2-2-2-2-2-2-2-2-2-2-2-2-|--------------------------------
 -------------------------------------------|play again w/o PM   play inter1  

------------------------------------------|-----------------------------------
------------------------------------------|-----------------------------------
------------------------------------------|-----------------------------------
------------------------------------------|-----------------------------------
-0-0-0-----0-0-1----1------1----------1---|-----------------------------------
-0-0-0-3*--0-0-1--0-1--0-0-1--0---0---1---|-----------------------------------
 OUTRO           PM    PM-|  PM-----|          (mutha f***er part)            

----------------------------------------|-------------------------------------
----------------------------------------|-------------------------------------
----------------------------------------|-------------------------------------
----------------------------------------|-------------------------------------
----------------------------------------|-------------------------------------
----------------------------------------|-------------------------------------
 play inter1 slow and w/o wah part  order:INTRO/chorus/verse/chorus/verse/    

 chorus/bridge/intro/verse/chorus/bridge/inter1/inter2/outro/inter1slow
            
Submit corrections


        Eyeless lessons Hard to play? Try these video lessons and learn fast Eyeless lessons
        
↑ Back to top | Tablatures and chords for acoustic guitar and electric guitar, ukulele, drums are parodies/interpretations of the original songs. You may use it for private study, scholarship, research or language learning purposes only