» » »

Slipknot - Diluted Tabs

Artists:  A B C D E F G H I J K L M N O P Q R S T U V W X Y Z # 

Diluted Tabs

(ver. 1) Click to play this song!
Slipknot
 Rating:
4/5 (4 votes)

 Diluted lessons Tabs too difficult? Try these video lessons and learn fast
 
                Slipknot
“diluted”

tuning: B F# F E G# C#

b = bend
r = release
~ = vibrato
PM= palm mute
h = hammer on
x = muted string

riff 1
part 1:
C#|-----------------------|
G#|-----------------------|
E |-----------------------|
B |-----------------------|
F#|-0-1-0-1-0-1-0---------|
B |-0-1-0-1-0-1-0-1b3--r--|

part 2:
C#|-------------------------|
G#|-------------------------|
E |-------------------------|
B |-------------------------|
F#|-0-1-0-1-0-1-0-----------|
B |-0-1-0-1-0-1-0-8~--------|

riff 2:
C#|------------------------------------------------------------|
G#|------------------------------------------------------------|
E |------------------------------------------------------------|
B |------------------------------------------------------------|
F#|-1—-1--1--1--1--1--1—-1-—1--1--1--1--1--1-0--0--0—-0-—0—-0--|
B |-1—-1--1--1--1--1--1—-1-—1--1--1--1--1--1-0--0--0—-0-—0—-0--|
   |____________________________PM____________________________|

riff 3:
C#|------------------------------|
G#|------------------------------|
E |------------------------------|
B |------------------------------|
F#|------------------------------|
B |-8~------------8b-------------|

riff 4
part 1:
C#|------------------|
G#|------------------|
E |------------------|
B |------------------|
F#|-2-----1---2--1-2-|
B |-2-----1---2--1-2-|
     


part 2:
C#|---------------------|
G#|---------------------|
E |---------------------|
B |---------------------|
F#|-2-----1---2--1-2--2-|
B |-2-----1---2--1-2—-2-|

riff 5
part 1:
C#|-------------------|
G#|-------------------|
E |-------------------|
B |-------------------|
F#|-1-1h2-2—-1--h2-2--|
B |-1-1h2-2—-1--h2-2--|     

part 2:
C#|---------------------------|
G#|---------------------------|
E |---------------------------|
B |---------------------------|
F#|-x-x--x-x--x--x-x-x-x-3-1--|
B |-x-x--x-x--x--x-x-x-x-3-1--|

part 3:
C#|------------|
G#|------------|
E |------------|
B |------------|
F#|-2—-1h2--2--|
B |-2—-1h2--2--|
     
outro:
C#|--------------------------------------------------|
G#|--------------------------------------------------|
E |--------------------------------------------------|
B |--------------------------------------------------|
F#|-1—-1--1--1--1--1--1—-1-—1--1--1--1--1---0—-0-—0--|
B |-1—-1--1--1--1--1--1—-1-—1--1--1--1--1---0-—0--0--|
   |_______________________PM_______________________|
            
Submit corrections


        Diluted lessons Hard to play? Try these video lessons and learn fast Diluted lessons
        
↑ Back to top | Tablatures and chords for acoustic guitar and electric guitar, ukulele, drums are parodies/interpretations of the original songs. You may use it for private study, scholarship, research or language learning purposes only