» » »

Sleeping Giant - Finished People Tabs

Artists:  A B C D E F G H I J K L M N O P Q R S T U V W X Y Z # 

Finished People Tabs

(ver. 1) Click to play this song!
Sleeping Giant
 Rating:
4.4/5 (14 votes)

 Finished People lessons Tabs too difficult? Try these video lessons and learn fast
 
                [Verse]
   PM---------------------------------------------------------|       _
C#|--------------------------------|--------------------------------|  |
G#|--------------------------------|--------------------------------|  |
E |--------------------------------|--------------------------------|  |
B |--------------------------------|--------------------------------|  |
F#|0-0-0-0-0-0---------0-0-0-0-0-0-|0-0-------------0-0-0-0-0-0-----|  |
B |0-0-0-0-0-0---------0-0-0-0-0-0-|0-0-------------0-0-0-0-0-0-----|  |
                                                                       |
   PM---------------------------------------------|                    |-x2
C#|--------------------------------|--------------------------------|  |
G#|--------------------------------|--------------------------------|  |
E |--------------------------------|--------------------------------|  |
B |--------------------------------|--------------------------------|  |
F#|0-0-0-0-0-0---------0-0-0-0-0-0-|0-0-----0-0-0-0-----------------|  |
B |0-0-0-0-0-0---------0-0-0-0-0-0-|0-0-----0-0-0-0-0---------------| _|

                                                                      _
C#|--------------------------------|--------------------------------|  |
G#|--------------------------------|--------------------------------|  |
E |--------------------------------|--------------------------------|  |
B |--------------------------------|--------------------------------|  |
F#|0-------------------------------|--------------------------------|  |
B |0-------------------------------|--------------------------------|  |
                                                                       |
                                    PM--------------------------|      |-x4
C#|--------------------------------|--------------------------------|  |
G#|--------------------------------|--------------------------------|  |
E |--------------------------------|--------------------------------|  |
B |--------------------------------|--------------------------------|  |
F#|--------------------------------|1---0-0-0-0-0-0-1---0-0-1---3---|  |
B |--------------------------------|1---0-0-0-0-0-0-1---0-0-1---3---| _|

[Chorus]             
               PM------------|                      PM------------|    _
C#|--------------------------------|--------------------------------|  |
G#|--------------------------------|--------------------------------|  |
E |--------------------------------|--------------------------------|  |
B |--------------------------------|--------------------------------|  |
F#|------------0---0-0-0-0-0-0-----|----------------1-1---1-1---1-1-|  |
B |0-----------0---0-0-0-0-0-0--0--|----------------1-1---1-1---1-1-|  |
                                                                       |
               PM------------|          PM------------------------|    |-x2
C#|--------------------------------|--------------------------------|  |
G#|--------------------------------|--------------------------------|  |
E |--------------------------------|--------------------------------|  |
B |--------------------------------|--------------------------------|  |
F#|------------0---0-0-0-0-0-0-----|----1-1---1-1---1-1---1-1---1-1-|  |
B |0-----------0---0-0-0-0-0-0--0--|----1-1---1-1---1-1---1-1---1-1-| _|

[Verse]
   PM---------------------------------------------------------|       _
C#|--------------------------------|--------------------------------|  |
G#|--------------------------------|--------------------------------|  |
E |--------------------------------|--------------------------------|  |
B |--------------------------------|--------------------------------|  |
F#|0-0-0-0-0-0---------0-0-0-0-0-0-|0-0-------------0-0-0-0-0-0-----|  |
B |0-0-0-0-0-0---------0-0-0-0-0-0-|0-0-------------0-0-0-0-0-0-----|  |
                                                                       |
   PM---------------------------------------------|                    |-x2
C#|--------------------------------|--------------------------------|  |
G#|--------------------------------|--------------------------------|  |
E |--------------------------------|--------------------------------|  |
B |--------------------------------|--------------------------------|  |
F#|0-0-0-0-0-0---------0-0-0-0-0-0-|0-0-----0-0-0-0-----------------|  |
B |0-0-0-0-0-0---------0-0-0-0-0-0-|0-0-----0-0-0-0-0---------------| _|

                                                                      _
C#|--------------------------------|--------------------------------|  |
G#|--------------------------------|--------------------------------|  |
E |--------------------------------|--------------------------------|  |
B |--------------------------------|--------------------------------|  |
F#|0-------------------------------|--------------------------------|  |
B |0-------------------------------|--------------------------------|  |
                                                                       |
                                    PM--------------------------|      |-x4
C#|--------------------------------|--------------------------------|  |
G#|--------------------------------|--------------------------------|  |
E |--------------------------------|--------------------------------|  |
B |--------------------------------|--------------------------------|  |
F#|--------------------------------|1---0-0-0-0-0-0-1---0-0-1---3---|  |
B |--------------------------------|1---0-0-0-0-0-0-1---0-0-1---3---| _|

[Chorus]             
               PM------------|                      PM------------|    _
C#|--------------------------------|--------------------------------|  |
G#|--------------------------------|--------------------------------|  |
E |--------------------------------|--------------------------------|  |
B |--------------------------------|--------------------------------|  |
F#|------------0---0-0-0-0-0-0-----|----------------1-1---1-1---1-1-|  |
B |0-----------0---0-0-0-0-0-0--0--|----------------1-1---1-1---1-1-|  |
                                                                       |
               PM------------|          PM------------------------|    |-x4
C#|--------------------------------|--------------------------------|  |
G#|--------------------------------|--------------------------------|  |
E |--------------------------------|--------------------------------|  |
B |--------------------------------|--------------------------------|  |
F#|------------0---0-0-0-0-0-0-----|----1-1---1-1---1-1---1-1---1-1-|  |
B |0-----------0---0-0-0-0-0-0--0--|----1-1---1-1---1-1---1-1---1-1-| _|

[Outro]
   PM-----------------------------------------------------------|
C#|--------------------------------|--------------------------------|
G#|--------------------------------|--------------------------------|
E |--------------------------------|--------------------------------|  x3
B |--------------------------------|--------------------------------|
F#|0-------------------------------|----------------1---0-0-1---3---|
B |0-------------------------------|----------------1---0-0-1---3---|

                                       PM----|
C#|--------------------------------|--------------------------------|
G#|--------------------------------|--------------------------------|
E |--------------------------------|--------------------------------|
B |--------------------------------|--------------------------------|
F#|0-------------------------------|---0-----0----------------------|
B |0-------------------------------|---0-----0------0---------------|

   PM----|         PM-----------------|             PM------------|
C#|--------------------------------|--------------------------------|
G#|--------------------------------|--------------------------------|
E |--------------------------------|--------------------------------|
B |--------------------------------|--------------------------------|
F#|1---0-0---------1-1---1-1---1---|--0-------------1-1---1-1---1-1-|
B |1---0-0-0-------1-1---1-1---1---|--0-0-----------1-1---1-1---1-1-|
   
   PM----|         PM-----------------|             PM------------|
C#|--------------------------------|--------------------------------|
G#|--------------------------------|--------------------------------|
E |--------------------------------|--------------------------------|
B |--------------------------------|--------------------------------|
F#|1---0-0---------1-1---1-1---1---|--0-------------3-----3-----3---|
B |1---0-0-0-------1-1---1-1---1---|--0-0-----------3-----3-----3---|
   
   PM----|         PM-----------------|             PM------------|
C#|--------------------------------|--------------------------------|
G#|--------------------------------|--------------------------------|
E |--------------------------------|--------------------------------|  x2
B |--------------------------------|--------------------------------|
F#|1---0-0---------1-1---1-1---1---|--0-------------1-1---1-1---1-1-|
B |1---0-0-0-------1-1---1-1---1---|--0-0-----------1-1---1-1---1-1-|

            
Submit corrections


        Finished People lessons Hard to play? Try these video lessons and learn fast Finished People lessons
        
↑ Back to top | Tablatures and chords for acoustic guitar and electric guitar, ukulele, drums are parodies/interpretations of the original songs. You may use it for private study, scholarship, research or language learning purposes only