» » »

Slayer - Mandatory Suicide Tabs

Artists:  A B C D E F G H I J K L M N O P Q R S T U V W X Y Z # 

Mandatory Suicide Tabs

(ver. 1) Click to play this song!
Slayer
 Rating:
4/5 (4 votes)
                Slayer
Mandatory Suicide
South Of Heaven
1988

Every Tab That Ive Seen Has Been Standard Tuning, The Real Better Sounding Tuning Is Drop D Tuning

Db
Ab
Db
Gb
Bb
Eb

Key:
*=Palm Mute
\=Slide Down


(Intro)
Guitar 1
|----------------------------------|
|----------------------------------|
|------------------10-9------------|
|-3-2-1-0--9-8---------------------|
|-3-2-1-0-------9------------------|
|-3-2-1-0--------------------------|(Repeat X4)

Guitar 2
|----------------------------------|
|----------------------------------|
|----------10-9--------------------|
|-3-2-1-0--------9-----------------|
|-3-2-1-0-----------8-7------------|
|-3-2-1-0--------------------------|(Reapeat X4)

Bridge 
|----------------------------------|
|----------------------------------|
|----------------------------------|
|-4----0----4----0-----------------|
|-4\---0----4\---0-----------------|
|-4\-1-0----4\-1-0-----------------|(Both Guitars)

|----------------------------------|
|----------------------------------|
|----------------------------------|
|-4----0----4----33----------------|
|-4\---0----4\---33----------------|
|-4\-1-0----4\-1-33----------------|(Both Guitars)

Verse
|----------------------------------|            |-----|
|----------------------------------|            |-----|
|----------------------------------|            |--5--|
|---3---3-2-1----------------------|            |--5--|
|-0-3-0-3-2-1----------------------|            |--5--|
|-0-3-0-3-2-1----------------------|(Repeat X4) |--5--|
  * * * * * *

Chorus 
|----------------------------------------------|
|----------------------------------------------|
|----------------------------------------------|
|-4---------------------4----0-----------------|
|-4\---0000000000000000-4\---0-----------------|
|-4\-1-0000000000000000-4\-1-0-----------------|(Both Guitars)On the palm mutes... 
       ****************                         Figure out how much times to play it.
|----------------------------------------------|
|----------------------------------------------|
|----------------------------------------------|
|-4---------------------4----33----------------|
|-4\---0000000000000000-4\---33----------------|
|-4\-1-0000000000000000-4\-1-33----------------|(Both Guitars)
       ****************
Bridge 2
|----------------------------------|
|----------------------------------|
|----------------------------------|
|-00---9-8-------------------------|
|-00-------10----------------------|
|-00-------------------------------|(Repeat X4)

Bridge 3
|----------------------------------|          |-----|       
|----------------------------------|          |-----|
|----------------------------------|          |-----|
|-00--5-4--------------------------|          |--5--|
|-00--3-2--3-2---------------------|          |--5--|
|-00-------3-2---------------------|Repeat X4)|--5--|

Chorus
|----------------------------------------------|
|----------------------------------------------|
|----------------------------------------------|
|-4---------------------4----0-----------------|
|-4\---0000000000000000-4\---0-----------------|
|-4\-1-0000000000000000-4\-1-0-----------------|(Both Guitars)On the palm mutes... 
       ****************                         Figure out how much times to play it.
|----------------------------------------------|
|----------------------------------------------|
|----------------------------------------------|
|-4---------------------4----33----------------|
|-4\---0000000000000000-4\---33----------------|
|-4\-1-0000000000000000-4\-1-33----------------|(Both Guitars)
       ****************

Verse
|----------------------------------|            |-----|
|----------------------------------|            |-----|
|----------------------------------|            |--5--|
|---3---3-2-1----------------------|            |--5--|
|-0-3-0-3-2-1----------------------|            |--5--|
|-0-3-0-3-2-1----------------------|(Repeat X4) |--5--|
  * * * * * *
            
Submit corrections

↑ Back to top | Tablatures and chords for acoustic guitar and electric guitar, ukulele, drums are parodies/interpretations of the original songs. You may use it for private study, scholarship, research or language learning purposes only