Home » S » Slayer »

Slayer - Flesh Storm Tabs

Artists:  A B C D E F G H I J K L M N O P Q R S T U V W X Y Z # 

Flesh Storm Tabs

(ver. 2) Click to play this song!
Slayer
Slayer - flesh storm

Tuning: Eb Ab Db Gb Bb eb



Figure A1: 5x

2/4          4/4
|-----------|--------------------------------------|----------------------------------||
|-----------|--------------------------------------|----------------------------------||
|-----------|--------------------------------------|---------------------------------*||
|--6s5---3--|--------------------------------------|----3--------------5-------------*||
|--6s5-2-3--|--------------------------------------|----3--------------5--------------||
|--4s3-0-1--|--0-0-0-0-0-0-0-0-0-0-0-0-0-0-0-0-0---|----1-0-0-0-0-0----3-0-0-0-0-0----||

Figure A2

2/4          4/4
|-----------|--------------------------------------|---------------------------------|
|-----------|--------------------------------------|---------------------------------|
|-----------|--------------------------------------|---------------------------------|
|--6s5---3--|--------------------------------------|--3---------------5-2-3-5-6------|
|--6s5-2-3--|--------------------------------------|--3---------------5-2-3-5-6------|
|--4s3-0-1--|--0-0-0-0-0-0-0-0-0-0-0-0-0-0-0-0-0---|--1-0-0-0-0-0-----3-0-1-3-4------|


Figure B1

|-----------------------------------|-----------------------------------|
|-----------------------------------|-----------------------------------|
|-----------------------------------|-----------------------------------|
|-----------------------------------|-----------------------------------|
|-----------------------------------|-----------------------------------|
|--1-1-1-1-1-1-1-0-1-1-1-1-1-1-1-0--|--1-1-1-1-1-1-1-1-2-2-2-2-2-2-2-2--|



|-----------------------------------|-----------------------------------|
|-----------------------------------|-----------------------------------|
|-----------------------------------|-----------------------------------|
|-----------------------------------|-----------------------------------|
|-----------------------------------|-----------------------------------|
|--1-1-1-1-1-1-1-0-1-1-1-1-1-1-1-0--|--1-1-1-1-1-1-1-1-3-3-3-3-3-3-3-3--|



|-----------------------------------|-----------------------------------|
|-----------------------------------|-----------------------------------|
|-----------------------------------|-----------------------------------|
|-----------------------------------|-----------------------------------|
|-----------------------------------|-----------------------------------|
|--1-1-1-1-1-1-1-0-1-1-1-1-1-1-1-0--|--1-1-1-1-1-1-1-1-2-2-2-2-2-2-2-2--|



|-----------------------------------|---------------------------|
|-----------------------------------|---------------------------|
|-----------------------------------|-------------5------4------|
|-----------------------------------|--3----6-----5------4------|
|-----------------------------------|--3----6-----3------2------|
|--1-1-1-1-1-1-1-0-1-1-1-1-1-1-1-0--|--1----4-------------------|



|-----------------------------------|-----------------------------------|
|-----------------------------------|-----------------------------------|
|-----------------------------------|-----------------------------------|
|-----------------------------------|-----------------------------------|
|-----------------------------------|-----------------------------------|
|--3-3-3-3-3-3-6-4-3-3-3-3-3-3-6-4--|--3-3-3-3-3-3-4-3-4-4-4-4-4-4-4-4--|



|-----------------------------------|-----------------------|
|-----------------------------------|-----------------------|
|-----------------------------------|------------5----4-----|
|-----------------------------------|--5----6----5----4-----|
|-----------------------------------|--5----6----3----2-----|
|--3-3-3-3-3-3-6-4-3-3-3-3-3-3-6-4--|--3----4---------------|



|-----------------------------------|-----------------------------------|
|-----------------------------------|-----------------------------------|
|-----------------------------------|-----------------------------------|
|-----------------------------------|-----------------------------------|
|-----------------------------------|-----------------------------------|
|--3-3-3-3-3-3-6-4-3-3-3-3-3-3-6-4--|--3-3-3-3-3-3-4-3-4-4-4-4-4-4-4-4--|



|-----------------------------------|-----------------------------------|
|-----------------------------------|-----------------------------------|
|-----------------------------------|-----------------------------------|
|-----------------------------------|--5-----6------5------6------------|
|-----------------------------------|--5-----6------5------6------------|
|--3-3-3-3-3-3-6-4-3-3-3-3-3-3-6-4--|--3-----4------3------4------------|

Figure A2

|-----------------------------------|-----------------------------------|
|-----------------------------------|-----------------------------------|
|-----------------------------------|-----------------------------------|
|-----------------------------------|-----------------------------------|
|-----------------------------------|-----------------------------------|
|--1-1-1-1-1-1-1-0-1-1-1-1-1-1-1-0--|--1-1-1-1-1-1-1-1-2-2-2-2-2-2-2-2--|



|-----------------------------------|----------------------|
|-----------------------------------|----------------------|
|-----------------------------------|----------------------|
|-----------------------------------|--3----6----5----2----|
|-----------------------------------|--3----6----5----2----|
|--1-1-1-1-1-1-1-0-1-1-1-1-1-1-1-0--|--1----4----3----0----|



|-----------------------------------|-----------------------------------|
|-----------------------------------|-----------------------------------|
|-----------------------------------|-----------------------------------|
|-----------------------------------|-----------------------------------|
|-----------------------------------|-----------------------------------|
|--1-1-1-1-1-1-1-0-1-1-1-1-1-1-1-0--|--1-1-1-1-1-1-1-1-3-3-3-3-3-3-3-3--|



|-----------------------------------|-----------------------------------|
|-----------------------------------|-----------------------------------|
|-----------------------------------|-----------------------------------|
|-----------------------------------|--3------6------5------3-----------|
|-----------------------------------|--3------6------5------3-----------|
|--1-1-1-1-1-1-1-0-1-1-1-1-1-1-1-0--|--1------4------3------1-----------|

Figure D1                            __________________________________
                                     |1
|---------------------------------|----------------------------------||
|---------------------------------|----------------------------------||
|*-----------------------------0--|----------------------------1----*||
|*---------2----------2--2h3-2----|----------2----------2--2h3---3--*||
|----------2----------2-----------|----------2----------2------------||
|--0-0-0-0-0--0-0-0-0-0-----------|--0-0-0-0-0--0-0-0-0-0------------||

________________________________
|2
|------------------------------|
|------------------------------|
|------------------------------|
|----------2----------2--3--2--|
|----------2----------2--3--2--|
|--0-0-0-0-0--0-0-0-0-0--1--0--|

Figure D2                             _____________________________________
                                      |1
|------------------------------------|-------------------------------------|
|------------------------------------|-------------------------------------|
|*--------------------------------0--|-------------------------------1----*|
|*--------------------------2h3-2----|---------------------------2h3---3--*|
|------------------------------------|-------------------------------------|
|--0-0-0-0-0-0-0-0-0-0-0-0-----------|--0-0-0-0-0-0-0-0-0-0-0-0------------|

________________________________Guitar solo
|2                               W/Figure A1
|------------------------------|-----------------------------------|
|------------------------------|---------------12--12-12-12-12-12--|
|------------------------------|-----------------------------------|
|----------2----------2--3--2--|-----------------------------------|
|----------2----------2--3--2--|-----------------------------------|
|--0-0-0-0-0--0-0-0-0-0--1--0--|-----------------------------------|



|--12------------------14------------------|--15-------------------------------------------|
|------12-12-12-12-12------12-12-12-12-12--|------12-12-12-12-12--13-13-13-13-13-13-13-13--|
|------------------------------------------|-----------------------------------------------|
|------------------------------------------|-----------------------------------------------|
|------------------------------------------|-----------------------------------------------|
|------------------------------------------|-----------------------------------------------|



|---------------19--16-15-----------|--18--16-15------------------------------|
|--13-------20------------18-16-15--|------------18-16-15--16-18-16-15--------|
|-----------------------------------|----------------------------------17-15--|
|-----------------------------------|-----------------------------------------|
|-----------------------------------|-----------------------------------------|
|-----------------------------------|-----------------------------------------|



|----------------------------------------|-----------------------------------------|
|----------------------------------------|-----------------------------------------|
|--14-15-17-14-15-17--17-15-14-----------|-----------------------------------------|
|------------------------------17-14-15--|-----------------------------------------|
|----------------------------------------|--17-14-15--14-12-10---------------------|
|----------------------------------------|----------------------12-13-15-12-13-15--|


                                                             full
|---------------------------------------|---------------------------|--15-17-18--|
|---------------------------------------|--------------------13-----|------------|
|---------------------------------------|--14-15-17-14-15-17-15bu---|------------|
|--------------------12-13-16-12-13-16--|---------------------------|------------|
|--12-13-15-12-13-15--------------------|---------------------------|------------|
|---------------------------------------|---------------------------|------------|



Figure B1

|-----------------------------------|-----------------------------------|
|-----------------------------------|-----------------------------------|
|-----------------------------------|-----------------------------------|
|-----------------------------------|-----------------------------------|
|-----------------------------------|-----------------------------------|
|--1-1-1-1-1-1-1-0-1-1-1-1-1-1-1-0--|--1-1-1-1-1-1-1-1-2-2-2-2-2-2-2-2--|



|-----------------------------------|-----------------------------------|
|-----------------------------------|-----------------------------------|
|-----------------------------------|-----------------------------------|
|-----------------------------------|-----------------------------------|
|-----------------------------------|-----------------------------------|
|--1-1-1-1-1-1-1-0-1-1-1-1-1-1-1-0--|--1-1-1-1-1-1-1-1-3-3-3-3-3-3-3-3--|



|-----------------------------------|-----------------------------------|
|-----------------------------------|-----------------------------------|
|-----------------------------------|-----------------------------------|
|-----------------------------------|-----------------------------------|
|-----------------------------------|-----------------------------------|
|--1-1-1-1-1-1-1-0-1-1-1-1-1-1-1-0--|--1-1-1-1-1-1-1-1-2-2-2-2-2-2-2-2--|



|-----------------------------------|---------------------------|
|-----------------------------------|---------------------------|
|-----------------------------------|-------------5------4------|
|-----------------------------------|--3----6-----5------4------|
|-----------------------------------|--3----6-----3------2------|
|--1-1-1-1-1-1-1-0-1-1-1-1-1-1-1-0--|--1----4-------------------|



|-----------------------------------|-----------------------------------|
|-----------------------------------|-----------------------------------|
|-----------------------------------|-----------------------------------|
|-----------------------------------|-----------------------------------|
|-----------------------------------|-----------------------------------|
|--3-3-3-3-3-3-6-4-3-3-3-3-3-3-6-4--|--3-3-3-3-3-3-4-3-4-4-4-4-4-4-4-4--|



|-----------------------------------|-----------------------|
|-----------------------------------|-----------------------|
|-----------------------------------|------------5----4-----|
|-----------------------------------|--5----6----5----4-----|
|-----------------------------------|--5----6----3----2-----|
|--3-3-3-3-3-3-6-4-3-3-3-3-3-3-6-4--|--3----4---------------|



|-----------------------------------|-----------------------------------|
|-----------------------------------|-----------------------------------|
|-----------------------------------|-----------------------------------|
|-----------------------------------|-----------------------------------|
|-----------------------------------|-----------------------------------|
|--3-3-3-3-3-3-6-4-3-3-3-3-3-3-6-4--|--3-3-3-3-3-3-4-3-4-4-4-4-4-4-4-4--|



|-----------------------------------|-----------------------------------|
|-----------------------------------|-----------------------------------|
|-----------------------------------|-----------------------------------|
|-----------------------------------|--5-----6------5------6------------|
|-----------------------------------|--5-----6------5------6------------|
|--3-3-3-3-3-3-6-4-3-3-3-3-3-3-6-4--|--3-----4------3------4------------|

Figure A2

|-----------------------------------|-----------------------------------|
|-----------------------------------|-----------------------------------|
|-----------------------------------|-----------------------------------|
|-----------------------------------|-----------------------------------|
|-----------------------------------|-----------------------------------|
|--1-1-1-1-1-1-1-0-1-1-1-1-1-1-1-0--|--1-1-1-1-1-1-1-1-2-2-2-2-2-2-2-2--|



|-----------------------------------|----------------------|
|-----------------------------------|----------------------|
|-----------------------------------|----------------------|
|-----------------------------------|--3----6----5----2----|
|-----------------------------------|--3----6----5----2----|
|--1-1-1-1-1-1-1-0-1-1-1-1-1-1-1-0--|--1----4----3----0----|



|-----------------------------------|-----------------------------------|
|-----------------------------------|-----------------------------------|
|-----------------------------------|-----------------------------------|
|-----------------------------------|-----------------------------------|
|-----------------------------------|-----------------------------------|
|--1-1-1-1-1-1-1-0-1-1-1-1-1-1-1-0--|--1-1-1-1-1-1-1-1-3-3-3-3-3-3-3-3--|



|-----------------------------------|-----------------------------------|
|-----------------------------------|-----------------------------------|
|-----------------------------------|-----------------------------------|
|-----------------------------------|--3------6------5------3-----------|
|-----------------------------------|--3------6------5------3-----------|
|--1-1-1-1-1-1-1-0-1-1-1-1-1-1-1-0--|--1------4------3------1-----------|


Figure D1                            __________________________________
                                     |1
|---------------------------------|----------------------------------||
|---------------------------------|----------------------------------||
|*-----------------------------0--|----------------------------1----*||
|*---------2----------2--2h3-2----|----------2----------2--2h3---3--*||
|----------2----------2-----------|----------2----------2------------||
|--0-0-0-0-0--0-0-0-0-0-----------|--0-0-0-0-0--0-0-0-0-0------------||

________________________________
|2
|------------------------------|
|------------------------------|
|------------------------------|
|----------2----------2--3--2--|
|----------2----------2--3--2--|
|--0-0-0-0-0--0-0-0-0-0--1--0--|



Figure D2                             _____________________________________
                                      |1
|------------------------------------|-------------------------------------||
|------------------------------------|-------------------------------------||
|*--------------------------------0--|-------------------------------1----*||
|*--------------------------2h3-2----|---------------------------2h3---3--*||
|------------------------------------|-------------------------------------||
|--0-0-0-0-0-0-0-0-0-0-0-0-----------|--0-0-0-0-0-0-0-0-0-0-0-0------------||

________________________________
|2
|------------------------------|
|------------------------------|
|------------------------------|
|----------2----------2--3--6--|
|----------2----------2--3--6--|
|--0-0-0-0-0--0-0-0-0-0--1--4--|

Figue E1: 5x

|-----------------------------------|-----------------------------------|
|-----------------------------------|-----------------------------------|
|-----------------------------------|-----------------------------------|
|----2-2-2-6s2-2-2---2-2-2-2-2-2-2--|----2-2-2-6s2-2-2-5-8-8-8-8-8-8-8--|
|----2-2-2-6s2-2-2---2-2-2-2-2-2-2--|----2-2-2-6s2-2-2-5-8-8-8-8-8-8-8--|
|--3p0-0-0-4s0-0-0-3p0-0-0-0-0-0-0--|--3p0-0-0-4s0-0-0-3-6-6-6-6-6-6-6--|



|----------------------------|---------------------------------|
|----------------------------|---------------------------------|
|----------------------------|---------------------------------|
|--8-8-8-8-8-8-8-8--6s5-2-3--|--2------------------------------|
|--8-8-8-8-8-8-8-8--6s5-2-3--|--2------------------------------|
|--6-6-6-6-6-6-6-6--4s3-0-1--|--0-0-0-0-0-0-0-0-0-0-0-0-0-0-0--|



|----------------------------|
|----------------------------|
|----------------------------|
|---3-----------5------------|
|---3-----------5------------|
|---1-0-0-0-0-0-3-0-0-0-0-0--|

Solo 2

   Full    Full      Full  Full
|--19------13-----|--19----19-----|--24-19-22-19-21-19-24-19-22-19-21-19--|
|--22bu----22bu---|--22bu--22bu---|---------------------------------------|
|-----------------|---------------|---------------------------------------|
|-----------------|---------------|---------------------------------------|
|-----------------|---------------|---------------------------------------|
|-----------------|---------------|---------------------------------------|


                                     W/bar
|--24-19-22-19-21-19-24-19-22-19----|------|-------|---------------------------------|
|-----------------------------------|------|-------|---------------------------------|
|-----------------------------------|------|-------|---------------------------------|
|-----------------------------------|------|-------|-----------------------12--------|
|-----------------------------------|------|-------|--12-14-15-12-14-14-15----14-15--|
|-----------------------------------|--0---|--(0)--|---------------------------------|


                                                                               Full
|----------------------------------|--------------12----13-12---|--15-13-17-15-19bu-19-17--|
|----------------------------------|--13-12-15-13----15---------|--------------------------|
|---------------12----14-12-16-14--|----------------------------|--------------------------|
|------12-14-15----15--------------|----------------------------|--------------------------|
|14-15-----------------------------|----------------------------|--------------------------|
|----------------------------------|----------------------------|--------------------------|


   Full       Full           Full           Full        Full         Full       Full
|--19bu-19-17---------|------19bu-19-17--|--19bu-19-17--------|--------------|--15----|
|-------------20bu----|------------------|--------------18bu--|------18bu----|--18bu--|
|---------------------|------------------|--------------------|--------------|--------|
|---------------------|------------------|--------------------|--------------|--------|
|---------------------|------------------|--------------------|--------------|--------|
|---------------------|------------------|--------------------|--------------|--------|


   Full
|--18bu--18--|--18-17-15-15--------------------------|---------|--s20-20-20-20-20-20-20-20--|
|------------|--------------18-16-15-----------------|---------|----------------------------|
|------------|-----------------------17-15-14--------|---------|----------------------------|
|------------|--------------------------------17-15--|---------|----------------------------|
|------------|---------------------------------------|--15s----|----------------------------|
|------------|---------------------------------------|---------|----------------------------|

             w/bar    w/bar
             P.H      N.H
|--20-----|--------|--------|-----------------------|----------------------------|
|---------|--------|--------|-----------------------|----------------------------|
|---------|--0-----|--3---s-|----0h3-5h6p5p0-5p3p0--|--5p1p0-5p3p0-6p3p0-9p0h6s--|
|---------|--------|--------|-----------------------|----------------------------|
|---------|--------|--------|-----------------------|----------------------------|
|---------|--------|--------|-----------------------|----------------------------|


   +             +
|--------------------------|--------------------13-15-16-17-19---|--20--------|
|--------------------------|-----------13-15-16------------------|------------|
|--s------s------s------s--|--12-14-15---------------------------|------------|
|--------------------------|-------------------------------------|------------|
|--------------------------|-------------------------------------|------------|
|--------------------------|-------------------------------------|------------|




----------------------------------|
----------------------------------|
----------------------------------|
-------------------------6--------|
-----------------7-8-5-8---8-7-8--|
-0-0-0-0-0-0-0-0------------------|



|------------------------------------|------------------
|------------------------------------|------------------
|---------------------------5--------|------------------
|-------------------6-7--------------|------------------
|-----------------------8-7---8-7-8--|------------------
|--0-0-0-0-0-0-0-0-------------------|--0-0-0-0-0-0-0-0-



-----------------|---------------------------------|-----------------
-----------------|---------------------------------|-----------------
-----------------|---------10--9-----------5-------|-----------------
---------6-------|---------10--9---6-7-------------|-----------------
-7-8-5-8---8-7-8-|----------8--7-------8-7---8-7-8-|-----------------
-----------------|-0-0-0-0-------------------------|-0-0-0-0-0-0-0-0-



-----------------|----------------------------------|-----------------
-----------------|----------------------------------|-----------------
-----------------|--------------------------5-------|-----------------
---------6-------|------------------6-7-------------|-----------------
-7-8-5-8---8-7-8-|----------------------8-7---8-7-8-|-----------------
-----------------|-0-0-0-0-0-0-0-0------------------|-0-0-0-0-0-0-0-0-



-----------------|------------------------------------|
-----------------|------------------------------------|
-----------------|---------10--9----------------------|
---------6-------|---------10--9---6-7----------------|
-7-8-5-8---8-7-8-|----------8--7-------8-7------------|
-----------------|-0-0-0-0-----------------8-7--1-----|

Figure F1: 4x                        Figure F2: 5x

|-----------------------------------||-------------------------------------||
|-----------------------------------||-------------------------------------||
|*---------------------------------*||*-----------------------------------*||
|*-----2-2-2-2-2-2-----2-2-----2-2-*||*-----2-2-------2-2-----2-2-2-2-2-2-*||
|--2---2-2-2-2-2-2-2---2-2-2---2-2--||--2---2-2-------2-2-2---2-2-2-2-2-2--||
|--1p0-0-0-0-0-0-0-1p0-0-0-3p0-0-0--||--3p0-0-0-4p1p0-0-0-3p0-0-0-0-0-0-0--||



|-------------------------------------------|
|-------------------------------------------|
|-------------------------------------------|
|------2-2-------2-2-5-8-8-8-8-8-8-8-8---xs-|
|--2---2-2-------2-2-5-8-8-8-8-8-8-8-8---xs-|
|--3p0-0-0-4p1p0-0-0-3-6-6-6-6-6-6-6-6---xs-|



Figure D1                            __________________________________
                                     |1
|---------------------------------|----------------------------------||
|---------------------------------|----------------------------------||
|*-----------------------------0--|----------------------------1----*||
|*---------2----------2--2h3-2----|----------2----------2--2h3---3--*||
|----------2----------2-----------|----------2----------2------------||
|--0-0-0-0-0--0-0-0-0-0-----------|--0-0-0-0-0--0-0-0-0-0------------||

________________________________
|2
|------------------------------|
|------------------------------|
|------------------------------|
|----------2----------2--3--2--|
|----------2----------2--3--2--|
|--0-0-0-0-0--0-0-0-0-0--1--0--|



Figure D2                             _____________________________________
                                      |1
|------------------------------------|-------------------------------------||
|------------------------------------|-------------------------------------||
|*--------------------------------0--|-------------------------------1----*||
|*--------------------------2h3-2----|---------------------------2h3---3--*||
|------------------------------------|-------------------------------------||
|--0-0-0-0-0-0-0-0-0-0-0-0-----------|--0-0-0-0-0-0-0-0-0-0-0-0------------||

________________________________
|2
|------------------------------|
|------------------------------|
|------------------------------|
|----------2----------2--3--6--|
|----------2----------2--3--6--|
|--0-0-0-0-0--0-0-0-0-0--1--4--|



|-------------|
|-------------|
|-------------|
|--6s5---3-2--|
|--6s5-2-3-2--|
|--4s3-0-1-0--|
            
Submit corrections

↑ Back to top | Tablatures and chords for acoustic guitar and electric guitar, ukulele, drums are parodies/interpretations of the original songs. You may use it for private study, scholarship, research or language learning purposes only