» » »

Slayer - Desire Tabs

Artists:  A B C D E F G H I J K L M N O P Q R S T U V W X Y Z # 

Desire Tabs

(ver. 2) Click to play this song!
Slayer
 Rating:
4/5 (4 votes)

 Desire lessons Tabs too difficult? Try these video lessons and learn fast
 
                


Dropped D Tune (Dadgbe)

Intro
-----------2--------------------------------3--------------------------------------|
---------------2----------------------------------3--------------------------------|
-------------------0---------------------------------------------------------------|*
----4--------------------------5---------------------------------------------------|

Riff 1
------------------6-------------------------5----------------------8-----------------4-----------4------|*
------------4---------4----------------3--------3------------6---------6--------------------------------|*
-----4------------------------4-------------------------4----------------------4------------------------|
Distortion Kicks in [play once]
---------------6-------------------6-----7---------------------------------------------------------------|
----------4---------4-------------4----------------------------------------------------------------------|
---4-------------------------4---------------------------------------------------------------------------|
(Then play Riff 1 in Distortion a few times)

Riff 2
------0-----------0------------0--------------0-0-0--6---0--(0)-------|
------0----0--0--0—0--0-0--0--0-0-0-0---0-0-0--6---0--(0)-------------|
 pm . .  .  . . .     . . . .  . . .

Riff 3 
----4-----------------2------5----4--------4-----------------------1\6----5-------------------------|
-----------6----5-----------------------------------6-----5---------1\6---5------------------------|

Riff 4
--------------------2-----5----4--------------------------------------------------------------------|
----4----------------------------------4-----------------1\6--5-----------------------------------|
----------6----5---------------------------6------5-----1\6--5-----------------------------------|

Riff 5
-----------------------------3----------------------------------------------------------------------|
-----------------------4-----------6----------------------------------------------------------------|
------4-----------------------------------4--------------------1\6-----5----------------------------|
------------6---5--------------------------------6-----5------1\6-----5-----------------------------|

Riff 6 [play once]
---4--4------1--1----3-3-3-3-3---4-4-4-4-4-----7-7-7------------------------------------------------|
---4--4------1--1----3-3-3-3-3---4-4-4-4-4-----7-7-7------------------------------------------------|
(Riff 1)
(Riff 3,4,5)
(Riff 1)

Play this during solo [palm mute]
--4-4-4-4-4-4-4-4---------1-1-1-1-1-1-1-1-----------------------------------------------------------|
--4-4-4-4-4-4-4-4---------1-1-1-1-1-1-1-1-----------------------------------------------------------|
(Riff 2)
(Riff 6)
(Riff 1)

Slayer Kicks a**
            
Submit corrections


        Desire lessons Hard to play? Try these video lessons and learn fast Desire lessons
        
↑ Back to top | Tablatures and chords for acoustic guitar and electric guitar, ukulele, drums are parodies/interpretations of the original songs. You may use it for private study, scholarship, research or language learning purposes only