» » »

Slayer - Cult Tabs

Artists:  A B C D E F G H I J K L M N O P Q R S T U V W X Y Z # 

Cult Tabs

(ver. 2) Click to play this song!
Slayer
 Rating:
4/5 (4 votes)

 Cult lessons Tabs too difficult? Try these video lessons and learn fast
 
                SLAYER


cult


Eternal Pyre






ejido hillo son mex




intro

Eb|--------------------------------------------------------------------------------|
Bb|--------------------------------------------------------------------------------|
F#|--------------------------------------------------------------------------------|
C#|--------------------------------------------------------------------------------| 
x 3
G#|---8-7-----7-7-7------8-7-------10-10-10-------8-7-----7-7-7-----8-7-----10-9-8-|
C#|-0------0----------0--------0--------------0--------0---------0-------0---------|


  distorsion
   gt1
Eb|---------------------------------------------------------------------------------|
Bb|---------------------------------------------------------------------------------|
F#|---------------------------------------------------------------------------------|
C#|---------------------------------------------------------------------------------|
G#|---8-7-----7-7-7------8-7-------10-10-10-------8-7-----7-7-7------8-7-----10-9-8-|
C#|-0------0----------0--------0---------------0-------0----------0-------0---------|


   gt2
Eb|-----------------------------------------------------------------------------------|
Bb|-----------------------------------------------------------------------------------|
F#|-----------------------------------------------------------------------------------|
C#|--------------------------------------------------------------------------12-11-10-|
G#|---8-7-----7-7-7------8-7-------10-10-10-------8-7-----7-7-7------8-7--------------|
C#|-0-----0-0--------0-0------0-0---------------0-----0-0--------0-0-------0----------|


   gt1
Eb|--------------------------------------------------------------------------------|
Bb|--------------------------------------------------------------------------------|
F#|--------------------------------------------------------------------------------|
C#|--------------------------------------------------------------------------------|
G#|---8-7-----7-7-7------8-7-------10-10-10-------8-7-----7-7-7------8-7-----5-4-3-|
C#|-0------0----------0--------0---------------0-------0----------0-------0--3-2-1-|


   gt2
Eb|--------------------------------------------------------------------------------|
Bb|--------------------------------------------------------------------------------|
F#|--------------------------------------------------------------------------------|
C#|--------------------------------------------------------------------------------|
G#|---8-7-----7-7-7------8-7-------10-10-10-------8-7-----7-7-7------8-7-----5-4-3-|
C#|-0------0----------0--------0---------------0-------0----------0-------0--3-2-1-|



Eb|---------------------------------------------------|
Bb|---------------------------------------------------|
F#|---------------------------------------------------|
C#|---------------------------------------------------|
G#|-2--5--4--2--2-2-2-2-2-2--2--6--5----------4-----3-|
C#|-0--3--2--0--0-0-0-0-0-0--0--4--3--0--0-0--2--0--1-|

Eb|---------------------------------------------------|
Bb|---------------------------------------------------|
F#|---------------------------------------------------|
C#|---------------------------------------------------|
G#|-2--6--5--2--2-2-2-2-2-2--2--5--4----------4-----3-|
C#|-0--4--3--0--0-0-0-0-0-0--0--3--2--0--0-0--2--0--1-|


Eb|---------------------------------------------------|
Bb|---------------------------------------------------|
F#|---------------------------------------------------|
C#|---------------------------------------------------|
G#|-2--5--4--2--2-2-2-2-2-2--2--6--5----------4-----3-|
C#|-0--3--2--0--0-0-0-0-0-0--0--4--3--0--0-0--2--0--1-|

Eb|---------------------------------------------------|
Bb|---------------------------------------------------|
F#|---------------------------------------------------|
C#|---------------------------------------------------|
G#|-2--6--5--2--2-2-2-2-2-2--2--5--4----------4-----3-|
C#|-0--4--3--0--0-0-0-0-0-0--0--3--2--0--0-0--2--0--1-|


Eb|----------------------------------------------------------------------|
Bb|----------------------------------------------------------------------|
F#|----------------------------------------------------------------------|
C#|----------------------------------------------------------------------|
G#|---------------------------3-5------------------------------------5-4-|
C#|-0-3p1-00-2p1-000-1p0-000--1-3--0-3p1-00-2p1-000-1p0-000-2p1-000--3-2-|

Eb|-----------------------------------------------------------------------------|
Bb|-----------------------------------------------------------------------------|
F#|-----------------------------------------------------------------------------|
C#|-----------------------------------------------------------------------------|
G#|----------------------------------3-5------------------------------------5-4-|
C#|-0-3p1-00-2p1-000-1p0-000-2p1-000-1-3--0-3p1-00-2p1-000-1p0-000-2p1-000--3-2-|


verse
  oppression is the holy law in god i distrust a talent monument of fall to 
ashes to dust
   is what i agree the master plan the bible is where it all begins this 
propaganda shall
   dispare since the bible is everywhere
Eb|---------------------------------------------------------|
Bb|---------------------------------------------------------|
F#|---------------------------------------------------------|
C#|---------------------------------------------------------|
G#|----------------------------------------------5---4---5--|
C#|-000000000000-0-4p3h4-0-1-3--000000000000---0-3-0-2-0-3--|


   religion is hate religion is fear religion is war
Eb|-----------------------------------------------------------------------------------|
Bb|-----------------------------------------------------------------------------------|
F#|-----------------------------------------------------------------------------------|
C#|-----------------------------------------------------------------------------------|
G#|-----------------------------------------------------------------------------------|
C#|-111111111-4-3333333--111111111-4-3333333--111111111-4-3333333-111111111-4-3333333-|


   religion is rape religion is obscene religion is a whore
Eb|-----------------------------------------------------------------------------|
Bb|-----------------------------------------------------------------------------|
F#|-----------------------------------------------------------------------------|
C#|-----------------------------------------------------------------------------|
G#|-------------------------------------------------------------------------6-5-|
C#|-111111111-4-3333333--111111111-4-3333333--111111111-4-3333333-111111111-4-3-|


    the ..... of jesus christ there never was a sacrifice the man hides the 
truth that
    exists the world becomes a .... i made my choice 6 6 6
Eb|----------------------------------------|
Bb|----------------------------------------|
F#|----------------------------------------|
C#|----------------------------------------|
G#|----------------------------------------|
C#|-000000-3-444444-000-333333-0-444444444-|


  solo 1
Eb|-22b--22b-22-22-22-22-19-19-19-20-20-20-22-22-22-19-20-19-------------------------|
Bb|----------------------------------------------------------22-19-20-22-20-19-20-19-|
F#|----------------------------------------------------------------------------------|
C#|----------------------------------------------------------------------------------|
G#|----------------------------------------------------------------------------------|
C#|----------------------------------------------------------------------------------|


Eb|----------------------------------------17-17-17-18-20-18-17-18-17----------------------|
Bb|-------------------------------------------------------------------20-17-18-20-18-17-18-|
F#|-22-19-20-22-20-19-20-19-----19-21b-----------------------------------------------------|
C#|--------------------------21------------------------------------------------------------|
G#|----------------------------------------------------------------------------------------|
C#|----------------------------------------------------------------------------------------|

Eb|-----------------------------------------------------------------------------|
Bb|-17--------------------------------------------------------------------------|
F#|----19-16-18-19-18-16-18-16--------------------------------------------------|
C#|----------------------------19-16-18-19-18-16-18-16--------------------------|
G#|-----------------------------------------------------19-16-18-19-18-16-18-16-|
C#|-----------------------------------------------------------------------------|

Eb|--------------------------------------------------------------------|
Bb|--------------------------------------------------------18b-18b-18b-|
F#|-------------------------------------------16-18-16-18--18b-18b-18b-|
C#|----------------------------16-18-16-18-19--------------------------|
G#|-------------16-18-16-18-19-----------------------------------------|
C#|-19-16-18-19--------------------------------------------------------|


Eb|---------------------------------------------------------|
Bb|---------------------------------------------------------|
F#|---------------------------------------------------------|
C#|---------------------------------------------------------|
G#|----------------------------------------------5---4---5--|
C#|-000000000000-0-4p3h4-0-1-3--000000000000---0-3-0-2-0-3--|


Eb|-----------------------------------------------------------------------------------|
Bb|-----------------------------------------------------------------------------------|
F#|-----------------------------------------------------------------------------------|
C#|-----------------------------------------------------------------------------------|
G#|-----------------------------------------------------------------------------------|
C#|-111111111-4-3333333--111111111-4-3333333--111111111-4-3333333-111111111-4-3333333-|

Eb|-----------------------------------------------------------------------------|
Bb|-----------------------------------------------------------------------------|
F#|-----------------------------------------------------------------------------|
C#|-----------------------------------------------------------------------------|
G#|-------------------------------------------------------------------------6-5-|
C#|-111111111-4-3333333--111111111-4-3333333--111111111-4-3333333-111111111-4-3-|


Eb|----------------------------------------|
Bb|----------------------------------------|
F#|----------------------------------------|
C#|----------------------------------------|
G#|----------------------------------------|
C#|-000000-3-444444-000-333333-0-444444444-|


Eb|---------------------------------------------------|
Bb|---------------------------------------------------|
F#|---------------------------------------------------|
C#|---------------------------------------------------|
G#|-2--5--4--2--2-2-2-2-2-2--2--6--5----------4-----3-|
C#|-0--3--2--0--0-0-0-0-0-0--0--4--3--0--0-0--2--0--1-|

Eb|---------------------------------------------------|
Bb|---------------------------------------------------|
F#|---------------------------------------------------|
C#|---------------------------------------------------|
G#|-2--6--5--2--2-2-2-2-2-2--2--5--4----------4-----3-|
C#|-0--4--3--0--0-0-0-0-0-0--0--3--2--0--0-0--2--0--1-|


Eb|---------------------------------------------------|
Bb|---------------------------------------------------|
F#|---------------------------------------------------|
C#|---------------------------------------------------|
G#|-2--5--4--2--2-2-2-2-2-2--2--6--5----------4-----3-|
C#|-0--3--2--0--0-0-0-0-0-0--0--4--3--0--0-0--2--0--1-|

Eb|---------------------------------------------------|
Bb|---------------------------------------------------|
F#|---------------------------------------------------|
C#|---------------------------------------------------|
G#|-2--6--5--2--2-2-2-2-2-2--2--5--4----------4-----3-|
C#|-0--4--3--0--0-0-0-0-0-0--0--3--2--0--0-0--2--0--1-|


Eb|----------------------------------------------------------------------|
Bb|----------------------------------------------------------------------|
F#|----------------------------------------------------------------------|
C#|----------------------------------------------------------------------|
G#|---------------------------3-5------------------------------------5-4-|
C#|-0-3p1-00-2p1-000-1p0-000--1-3--0-3p1-00-2p1-000-1p0-000-2p1-000--3-2-|

Eb|-----------------------------------------------------------------------------|
Bb|-----------------------------------------------------------------------------|
F#|-----------------------------------------------------------------------------|
C#|-----------------------------------------------------------------------------|
G#|----------------------------------3-5------------------------------------5-4-|
C#|-0-3p1-00-2p1-000-1p0-000-2p1-000-1-3--0-3p1-00-2p1-000-1p0-000-2p1-000--3-2-|



   solo 2
Eb|---------------------------------------------------------------------------------------|
Bb|---------------------------------------------------------------------------------------|
F#|-12t5-12t5-12t5-12t5-12t5--14t5-14t5-14t5-14t5-14t5--17t5-17t5-17t5-17t5----9bf--9b--0-|
C#|---------------------------------------------------------------------------------------|
G#|---------------------------------------------------------------------------------------|
C#|---------------------------------------------------------------------------------------|

    bar
Eb|------------------------------------------------------------------------22bf-22b~~-|
Bb|-----/-------20-22-23-----20-22-23------20-22-23------20-22-23-----20--------------|
F#|-(0)/----/22-----------22-----------22------------22------------22-----------------|
C#|-----------------------------------------------------------------------------------|
G#|-----------------------------------------------------------------------------------|
C#|-----------------------------------------------------------------------------------|

Eb|-19-19-19-20-20-20-22-22-22-19-20-19-------------------------|
Bb|-------------------------------------22-19-20-22-20-19-20-19-|
F#|-------------------------------------------------------------|
C#|-------------------------------------------------------------|
G#|-------------------------------------------------------------|
C#|-------------------------------------------------------------|

                                                                       bar
Eb|----------------------------------------------------------------------/---------------|
Bb|------------------------------------------------------------5-6-5----/----5b-5b-5b-5b-|
F#|-22-19-20-22-20-19-20-19-----19/-----5~~~-----5-6-8-6-5------------0/-----7b-7b-7b-7b-|
C#|--------------------------21---------------7-------------7----------------------------|
G#|--------------------------------------------------------------------------------------|
C#|--------------------------------------------------------------------------------------|

                                 --------------------------------------
Eb|-----20b-20b-20b-20b-20b--23bf/--23-23-23-23-23-23-23-23-23-23-23-23-------------------|
Bb|-5/--23b-23b-23b-23b-23b-------/-------------------------------------------------------|
F#|--------------------------------/---------------------------------------0-----(0)------|
C#|---------------------------------/-----------------------------------------------------|
G#|----------------------------------/----------------------------------------------------|
C#|-----------------------------------/---------------------------------------------------|

    bar ////////////
Eb|-----------------------------------------------------------------------|
Bb|-----------------------------------------------------------------------|
F#|-(0)-------------------------------------------------------------------|
C#|-----------------------------------------------------------------------|
G#|-----------------------------------------------------------------------|
C#|-----------------------------------------------------------------------|


Eb|---------------------------------------------------------|
Bb|---------------------------------------------------------|
F#|---------------------------------------------------------|
C#|---------------------------------------------------------|
G#|----------------------------------------------5---4---5--|
C#|-000000000000-0-4p3h4-0-1-3--000000000000---0-3-0-2-0-3--|


Eb|-----------------------------------------------------------------------------------|
Bb|-----------------------------------------------------------------------------------|
F#|-----------------------------------------------------------------------------------|
C#|-----------------------------------------------------------------------------------|
G#|-----------------------------------------------------------------------------------|
C#|-111111111-4-3333333--111111111-4-3333333--111111111-4-3333333-111111111-4-3333333-|

Eb|-----------------------------------------------------------------------------|
Bb|-----------------------------------------------------------------------------|
F#|-----------------------------------------------------------------------------|
C#|-----------------------------------------------------------------------------|
G#|-------------------------------------------------------------------------6-5-|
C#|-111111111-4-3333333--111111111-4-3333333--111111111-4-3333333-111111111-4-3-|


Eb|----------------------------------------|
Bb|----------------------------------------|
F#|----------------------------------------|
C#|----------------------------------------|
G#|----------------------------------------|
C#|-000000-3-444444-000-333333-0-444444444-|


Eb|---------------------------------------------------------|
Bb|---------------------------------------------------------|
F#|---------------------------------------------------------|
C#|---------------------------------------------------------|
G#|----------------------------------------------5---4---5--|
C#|-000000000000-0-4p3h4-0-1-3--000000000000---0-3-0-2-0-3--|


  solo 3
Eb|-17-18-20--17-18-20--17-----------------------------------------------------------------|
Bb|-------------------------20-17-18-20-17-18-20-------------------------------------------|
F#|-----------------------------------------------19-16-18-19-16-18-19-16------------------|
C#|-----------------------------------------------------------------------19-16-18-19-18-16|
G#|----------------------------------------------------------------------------------------|
C#|----------------------------------------------------------------------------------------|


Eb|----------------------------------------------------------------------------------------|
Bb|----------------------------------------------------------------------------------------|
F#|----------------------------------------------------------------------------16-18-19-16-|
C#|----------------------------------------------------------16-18-19-16-18-19-------------|
G#|-19-16-18-19-18-16----------------------16-18-19-16-18-19-------------------------------|
C#|-------------------19-16-18-19-16-18-19-------------------------------------------------|


Eb|-----------------17----------------17----------------17-18-20-18-17--18-19-23-18-19-23-|
Bb|--------17-18-20----20-18-17-18-20----20-18-17-18-20-----------------------------------|
F#|-18-19---------------------------------------------------------------------------------|
C#|---------------------------------------------------------------------------------------|
G#|---------------------------------------------------------------------------------------|
C#|---------------------------------------------------------------------------------------|


Eb|-18-19-23-18-19-23-19-18--17b-17b-17b----------------------------------|
Bb|--------------------------20b-20b-20b----------------------------------|
F#|-----------------------------------------------------------------------|
C#|-----------------------------------------------------------------------|
G#|-----------------------------------------------------------------------|
C#|-----------------------------------------------------------------------|
            
Submit corrections


        Cult lessons Hard to play? Try these video lessons and learn fast Cult lessons
        
↑ Back to top | Tablatures and chords for acoustic guitar and electric guitar, ukulele, drums are parodies/interpretations of the original songs. You may use it for private study, scholarship, research or language learning purposes only