Home » S » Sky Sailing »

Sky Sailing - Tennis Elbow Tabs

Artists:  A B C D E F G H I J K L M N O P Q R S T U V W X Y Z # 

Tennis Elbow Tabs

(ver. 2) Click to play this song!
Sky Sailing
(Intro)
Tennis Elbow - Sky Sailing
Capo 2nd fret

  Guitar 1
e|-----------------------------------|-----------------------------------|
B|------0-------0--------------------|------0-------0--------------------|
G|-----------------------------------|----------------------------2-1----|
D|----2---2---1---1-----4-2-4/6--4\2-|----2---2---1---1-----4-2-4-----2--|
A|--4-------2------------------------|--4-------2------------------------|
E|------------------0-0--------------|------------------0-0--------------|

e|-----------------------------------|----------------------X-0----X-X---|
B|------0-------0--------------------|------0-------0-------X-0----X-X---|
G|-----------------------------------|----------------------X-1----X-X---|
D|----2---2---1---1-----4-2-4/6--4\2-|----2---2---1---1---2-X------X-X---|
A|--4-------2------------------------|--4-------2-----------X------X-X---|
E|------------------0-0--------------|------------------0---X------X-X---|



  Guitar 2
e|--2-----4-----2-0---------0--------|---------------0----------0--------|
B|-----------------------------------|--2-----4--------0----0------------|
 |
 |Guitar 1
e|-----------------------------------|-----------------------------------|
B|------0-------0--------------------|------0-------0--------------------|
G|-----------------------------------|----------------------------2-1----|
D|----2---2---1---1-----4-2-4/6--4\2-|----2---2---1---1-----4-2-4-----2--|
A|--4-------2------------------------|--4-------2------------------------|
E|------------------0-0--------------|------------------0-0--------------|


  Guitar 2
e|--2-----4-----2-0---------0--------|-------------------------0---------|
B|-----------------------------------|--2h4h5-4-5-0-------0--------------|
G|-----------------------------------|--------------2-1---1--------------|
D|-----------------------------------|------------------2----------------|
 |
 |Guitar 1
e|-----------------------------------|----------------------X--0---X-X---|
B|------0-------0--------------------|------0-------0-------X--0---X-X---|
G|-----------------------------------|----------------------X--1---X-X---|
D|----2---2---1---1-----4-2-4/6--4\2-|----2---2---1---1---2-X------X-X---|
A|--4-------2------------------------|--4-------2-----------X------X-X---|
E|------------------0-0--------------|------------------0---X------X-X---|
            
Submit corrections

↑ Back to top | Tablatures and chords for acoustic guitar and electric guitar, ukulele, drums are parodies/interpretations of the original songs. You may use it for private study, scholarship, research or language learning purposes only