Home » S » Sky Sailing »

Sky Sailing - Alaska Tabs

Artists:  A B C D E F G H I J K L M N O P Q R S T U V W X Y Z # 

Alaska Tabs

(ver. 3) Click to play this song!
Sky Sailing
Capo Fret 5

Stave 1:

E|--2--7--6--7--2--0-----0--2--0--------0-----------2--7--6--7--2--7--9--7--9--
B|--------------------4-----------4--4-----4--0--2-----------------------------
G|-----------------------------------------------------------------------------
D|-----------------------------------------------------------------------------
A|-----------------------------------------------------------------------------
E|-----------------------------------------------------------------------------

Stave 2:

E|--2--7--6--7--2--0-----0--2--0--------0-----------2--7--6--7--2--7--9--7--9-----2--2--2--7--9--7--
B|--------------------4-----------4--4-----4--0--2--------------------------------------------------
G|--------------------------------------------------------------------------------------------------
D|--------------------------------------------------------------------------------------------------
A|--------------------------------------------------------------------------------------------------
E|--------------------------------------------------------------------------------------------------            
Submit corrections

↑ Back to top | Tablatures and chords for acoustic guitar and electric guitar, ukulele, drums are parodies/interpretations of the original songs. You may use it for private study, scholarship, research or language learning purposes only