» » »

Skylar Grey - I Will Return Tabs

Artists:  A B C D E F G H I J K L M N O P Q R S T U V W X Y Z # 

I Will Return Tabs

(ver. 1) Click to play this song!
Skylar Grey
 Rating:
4.3/5 (23 votes)

 I Will Return lessons Tabs too difficult? Try these video lessons and learn fast
 
                [Intro]

e|-----3---3---0--------3---3--------|
B|---5---5------------5---5-----3----|
G|-----------------------------------|
D|-----------------------------------|    2X
A|-0----------------3----------------|
E|-------------1----------------3----|

[Verse]

e|-----------------------------------|
B|-0-1-1-3-1-------------------------|
G|-----------2-0-0-------------------|
D|-----------------2-----------------|    3X
A|---0-----1---3---------------------|
E|-----------------0-----------------|

e|-------------0-1-0-----------------|
B|-1-0-1-3-1-3-------1-3-------------|
G|-----------------------------------|
D|-----------------------------------|
A|-0-----------3---------------------|
E|-----1---------------3-------------|

[Pre-Chorus]

e|-0---------------0-----------------|
B|---1-3-0-----------1-3-0-----------|
G|---------2-0--2----------0---------|
D|-----------------------------------|
A|-----------------------------------|
E|-1---0--------1--1---0---3---------|

[Chorus]

e|-0-0---------0-0-1-0---------------|
B|-----3-1-1-3---------3-------------|
G|-----------------------------------|
D|-----------------------------------|    2X
A|-0-----------3---------------------|
E|-------1-------------3-------------|

e|-0-5-3-3-3-3-3-1-0-----------------|
B|-------------------3---------------|
G|-----------------------------------|
D|-----------------------------------|
A|---0-------3-----------------------|
E|-------1-----------3---------------|

e|-0-0------0-0---------0-0-1-0------|
B|-----3-1------3-1-1-3---------3----|
G|-----------------------------------|
D|-----------------------------------|
A|-------0--------------3------------|
E|----------------1-------------3----|

[Bridge]

e|----------------------0-----0------|
B|-1-1-3-0----1-1-3-0------1-----3---|
G|---------2-------------------------|
D|-----------------------------------|
A|----------------------0-----3------|
E|-------------------------1-----3---|

[Chorus]

e|-0-0---------0-0-1-0---------------|
B|-----3-1-1-3---------3-------------|
G|-----------------------------------|
D|-----------------------------------|    2X
A|-0-----------3---------------------|
E|-------1-------------3-------------|

e|-0-5-3-3-3-3-3-1-0-----------------|
B|-------------------3---------------|
G|-----------------------------------|
D|-----------------------------------|
A|---0-------3-----------------------|
E|-------1-----------3---------------|

e|-0-0------0-0---------0-0-1-0------|
B|-----3-1------3-1-1-3---------3----|
G|-----------------------------------|
D|-----------------------------------|
A|-------0--------------3------------|
E|----------------1-------------3----|            
Submit corrections


        I Will Return lessons Hard to play? Try these video lessons and learn fast I Will Return lessons
        
↑ Back to top | Tablatures and chords for acoustic guitar and electric guitar, ukulele, drums are parodies/interpretations of the original songs. You may use it for private study, scholarship, research or language learning purposes only