Home » S » Skunk Anansie »

Skunk Anansie - You Ll Follow Me Down Bass

Artists:  A B C D E F G H I J K L M N O P Q R S T U V W X Y Z # 

You Ll Follow Me Down Bass

(ver. 2) Click to play this song!
Skunk Anansie
Verse:
  +       +       +       +        +       +       +       +      
G|--------------------------------|--------------------------------|
D|--------------------------------|----------------5-------5---4---|
A|----------3-5-7---------7-------|----------3-5-------------------|
E|1-------5-----------------8---0-|1-------5-----------------------|

  +       +       +       +        +       +       +       +
G|--------------------------------|--------------------------------|
D|--------------------------------|--------------------------------|
A|----------3-5-7---------7-5-----|----------3-5---7------/11------|
E|1-------5---------------------0-|1-------5-----------------------|

Pre chorus:
  +       +       +       +        +       +       +       +
G|--------------------------------|--------------------------------|
D|7------(x)--7-------------------|--------------------------------|
A|--------------4-5---------------|--------------------------------|
E|------------------------------0-|1-------------1-0---------0-3-0-|

Chorus:
  +       +       +       +        +       +       +       +
G|--------------------------------|--------------------------------|
D|--------------------------------|--------------------------------|
A|3-----------5-------------------|--------------------------------|
E|--------------1-3-----------3---|0---------0-4-0-5-----0-3-----0-|

  +       +       +       +        +       +       +       +
G|--------------------------------|--------------------------------|
D|--------------------------------|----------------5---------------|
A|----------3-5-------------3-5---|----------5-7-------------------|
E|1-------5-----1-2-------5-----2-|3-------7-----------------------|

Bridge:
  +       +       +       +        +       +       +       +
G|--------------------------------|--------------------------------|
D|--------------------------------|--------------------------------|
A|13--------------12--------------|--------------------------------|
E|--------------------------------|0---12--------2-3---------------|

  +       +       +       +        +       +       +       +
G|--------------------------------|--------------------------------|
D|--------------------------------|--------------------------------|
A|13--------------12--------------|----------------7---7---------7-|
E|--------------------------------|0-----------------0---------0---|

  +       +       +       +        
G|--------------------------------|
D|--------------------------------|
A|----7-7-7-7-7-7-----------------|
E|--------------------------------|

Outro:
  +       +       +       +        +       +       +       +
G|------------------------------|--------------------------------|
D|------------------------------|--------------------------------|
A|-------7----------------------|--------------------------------|
E|--1---------------------------|--------------------------------|
            
Submit corrections

↑ Back to top | Tablatures and chords for acoustic guitar and electric guitar, ukulele, drums are parodies/interpretations of the original songs. You may use it for private study, scholarship, research or language learning purposes only