» » »

Skindred - Volume Tabs

Artists:  A B C D E F G H I J K L M N O P Q R S T U V W X Y Z # 

Volume Tabs

(ver. 1) Click to play this song!
Skindred
 Rating:
2.1/5 (25 votes)

 Volume  lessons Tabs too difficult? Try these video lessons and learn fast
 
                Tuning: Drop C (C,G,C,F,A,D)

Riff 1
D|----------------------------------------------------|
A|----------------------------------------------------|
F|----------------------------------------------------|
C|----------------------------------------------------|
G|----------------------------------------------------|
C|-5h6-6p5-5\3-0-3--0-5h6-0--5h6-6p5-5\3-0-3--0-5h6-0-|

D|----------------------------------------------------|
A|----------------------------------------------------|
F|----------------------------------------------------|
C|----------------------------------------------------|
G|----------------------------3-----------------------|
C|-5h6-6p5-5\3-0-3-0-5h6/12~----5~-0-5-3-0-3--0-5h6-0-|

Riff 2   "So again you know we're on it..."
D|---------------------------------------------------------------------------|
A|---------------------------------------------------------------------------|
F|---------------------------------------------------------------------------|
C|-3--0---------3--0----------3--0---------3--0---3--0---3---0---3-0-x-x-x-x-|
G|-3--0---------3--0----------3--0---------3--0---3--0---3---0---3-0-x-x-x-x-|
C|-3--0---------3--0----------3--0---------3--0---3--0---3---0---3-0-x-x-x-x-|

Riff 3   "Turn up the volume make the speakers dem blow..."
D|----------------------------|
A|----------------------------|
F|----------------------------|
C|----------------------------|
G|----------------------------|
C|-5h6-6p5-5\3-0-3--0-5h6/12~-|

Riff 4   "Life on track, not turning back..."
D|-------------------------------------------------------------------------|
A|-------------------------------------------------------------------------|
F|-------------------------------------------------------------------------|
C|-8-8-8-8-8-8-8-8-10-10-10-10-12-12-12-12-5-5-5-5-5-5-5-5-7-7-7-7-8-8-8-8-|
G|-8-8-8-8-8-8-8-8-10-10-10-10-12-12-12-12-5-5-5-5-5-5-5-5-7-7-7-7-8-8-8-8-|
C|-8-8-8-8-8-8-8-8-10-10-10-10-12-12-12-12-5-5-5-5-5-5-5-5-7-7-7-7-8-8-8-8-|

D|---------------------------------------------------------------------------------|
A|---------------------------------------------------------------------------------|
F|---------------------------------------------------------------------------------|
C|------------------------------------------10-10-10-10-10-10-10-10----------------|
G|------------------------------------------10-10-10-10-10-10-10-10----------------|
C|-0-10-12-0-10-12-0-10--10-12-0-10-12-10-0-10-10-10-10-10-10-10-10-5h6-5~-5-3-0-3-|

Riff 4 ending
D|-----------------------------------------------------------|
A|-----------------------------------------------------------|
F|-----------------------------------------------------------|
C|-8-8-8-8-8-8-8-8-10-10-10-10-12-12-12-12-5-5-5-5-5-5-5-5-5-|
G|-8-8-8-8-8-8-8-8-10-10-10-10-12-12-12-12-5-5-5-5-5-5-5-5-5-|
C|-8-8-8-8-8-8-8-8-10-10-10-10-12-12-12-12-5-5-5-5-5-5-5-5-5-|

Play Riff 1 x1

Riff 5   "So me say broke up broke up..."
D|------------------------------------------------------------------------------------------|
A|------------------------------------------------------------------------------------------|
F|------------------------------------------------------------------------------------------|
C|-3---0----------3---0--------3--0---3--0---3--0---3--0---3--0---3--0---3--0---3-0-x-x-x-x-|
G|-3---0----------3---0--------3--0---3--0---3--0---3--0---3--0---3--0---3--0---3-0-x-x-x-x-|
C|-3---0----------3---0--------3--0---3--0---3--0---3--0---3--0---3--0---3--0---3-0-x-x-x-x-|

Play Riff 3 x1   "Turn up the volume make the speakers dem blow..."
Play Riff 4 x2   "Life on track, not turning back..."
Play Riff 1 x1   (4 string chugs at the end to lead into the bridge)

Riff 6
D|-------------------------------------------------------------------------|
A|-------------------------------------------------------------------------|
F|-------------------------------------------------------------------------|
C|-------------------------------------------------------------------------|
G|-------------------------------------------------------------------------|
C|-10h12-0-0-0-0-10h12-0-0-0-0-0-13---10h12-0-0-0-0-10h12-0-0-0-0-0-13--13-|

Play Riff 6 x3   "Keep it down..."

Riff 7   "Play your music everyday..."
D|-----------------------------------------------------|
A|-----------------------------------------------------|
F|-----------------------------------------------------|
C|-----------------------------------------------------|
G|-----------------------------------------------------|
C|-10h12-0-0-10-12-0-10\-x-13\-10h12-0-0-10-12-0-3-x-1-|

Play Riff 7 x4   "Gotta keep it loud now..."

Riff 8   "I can't keep it down..."
D|-------------------------------------------------------------------------------|
A|-------------------------------------------------------------------------------|
F|-------------------------------------------------------------------------------|
C|-----------3-1~---------------3------------------3-1~---------------3----------|
G|-----------3-1~---------------3------------------3-1~---------------3----------|
C|-10h12-0-0-3-1~---10h12-0-0-0-3--6-5-6-5-6-5-0-0-3-1~---10h12-0-0-0-3--6-5-6-5-|

Play Riff 3 x1
Play Riff 4 x2   "Life on track, not turning back..."
Play Riff 1 x2   "Keep turning it up..."
                 (song ends with 4 string chugs)            
Submit corrections


        Volume  lessons Hard to play? Try these video lessons and learn fast Volume  lessons
        
↑ Back to top | Tablatures and chords for acoustic guitar and electric guitar, ukulele, drums are parodies/interpretations of the original songs. You may use it for private study, scholarship, research or language learning purposes only