Home » S » Skindred »

Skindred - Alright Tabs

Artists:  A B C D E F G H I J K L M N O P Q R S T U V W X Y Z # 

Alright Tabs

(ver. 1) Click to play this song!
Skindred
[Intro]

D|-------------|----------|-------------|----------|
A|-------------|----------|-------------|----------|
F|-------------|----------|-------------|----------|
C|-5-5---2-5-2-|-9-9--4-4-|-5-5---2-5-2-|-9-9--7-7-| 2x
G|-5-5---2-5-2-|-9-9--4-4-|-5-5---2-5-2-|-9-9--7-7-|
C|-5-5---2-5-2-|-9-9--4-4-|-5-5---2-5-2-|-9-9--7-7-|


[Verse 1]

D|-------------|----------|-------------|----------|
A|-------------|----------|-------------|----------|
F|-------------|----------|-------------|----------|
C|-5-5---2-5-2-|-9-9--4-4-|-5-5---2-5-2-|-9-9--7-7-| 2x
G|-5-5---2-5-2-|-9-9--4-4-|-5-5---2-5-2-|-9-9--7-7-|
C|-5-5---2-5-2-|-9-9--4-4-|-5-5---2-5-2-|-9-9--7-7-|


[Bridge]

D|-------------|----------|-------------|----------|
A|-------------|----------|-------------|----------|
F|-5-5---5-----|------4-4-|-------------|------4-4-|
C|-5-5---5-5-2-|-2-2--4-4-|-5-5---2-5-2-|-5-5--4-4-|
G|-3-3---3-5-2-|-2-2--2-2-|-5-5---2-5-2-|-5-5--2-2-|
C|---------5-2-|-2-2------|-5-5---2-5-2-|-5-5------|

D|-----------------|-----------------|-----------------|-----------------|
A|-----------------|-----------------|-----------------|-----------------|
F|-5-5-5-5-5-5-5-9-|-9-9-9-9-9-9-9-9-|-----------------|-----------------|
C|-5-5-5-5-5-5-5-9-|-9-9-9-9-9-9-9-9-|-5-5-5-5-5-2-2-5-|-5-5-5-5-5-5-5-5-|
G|-3-3-3-3-3-3-3-7-|-7-7-7-7-7-7-7-7-|-5-5-5-5-5-2-2-5-|-5-5-5-5-5-5-5-5-|
C|-----------------|-----------------|-5-5-5-5-5-2-2-5-|-5-5-5-5-5-5-5-5-|


[Refrain]

D|-----------------|-----------------|-----------------|-----------------|
A|-----------------|-----------------|-----------------|-----------------|
F|-----------------|-4-4-4-4-5-7-7-7-|-----------------|-4-4-4-4-5-7-7-7-|
C|-5-5-5-5-5-5-5-5-|-4-4-4-4-5-7-7-7-|-5-5-5-5-5-5-5-5-|-4-4-4-4-5-7-7-7-|
G|-5-5-5-5-5-5-5-5-|-2-2-2-2-3-5-5-5-|-5-5-5-5-5-5-5-5-|-2-2-2-2-3-5-5-5-|
C|-5-5-5-5-5-5-5-5-|-----------------|-5-5-5-5-5-5-5-5-|-----------------|

D|-----------------|-----------------|-----------------|-----------------|
A|-----------------|-----------------|-----------------|-----------------|
F|-----------------|-4-4-4-4-5-7-7-7-|-9-9-9---9-9-9---|-5-5-5---5-5-5---|
C|-5-5-5-5-5-5-5-5-|-4-4-4-4-5-7-7-7-|-9-9-9---9-9-9---|-5-5-5---5-5-5---|
G|-5-5-5-5-5-5-5-5-|-2-2-2-2-3-5-5-5-|-7-7-7---7-7-7---|-3-3-3---3-3-3---|
C|-5-5-5-5-5-5-5-5-|-----------------|-----------------|-----------------|

D|-----------------|-----------------|-----------------|-----------------|
A|-----------------|-----------------|-----------------|-----------------|
F|-----------------|-4-4-4-4-5-7-7-7-|-----------------|-4-4-4-4-5-7-7-7-|
C|-5-5-5-5-5-5-5-5-|-4-4-4-4-5-7-7-7-|-5-5-5-5-5-5-5-5-|-4-4-4-4-5-7-7-7-|
G|-5-5-5-5-5-5-5-5-|-2-2-2-2-3-5-5-5-|-5-5-5-5-5-5-5-5-|-2-2-2-2-3-5-5-5-|
C|-5-5-5-5-5-5-5-5-|-----------------|-5-5-5-5-5-5-5-5-|-----------------|

D|-----------------|-----------------|-----------------|-----------------|
A|-----------------|-----------------|-----------------|-----------------|
F|-----------------|-4-4-4-4-5-7-7-7-|-9-9-9---9-9-9---|-5-5-5---5-5-5---|
C|-5-5-5-5-5-5-5-5-|-4-4-4-4-5-7-7-7-|-9-9-9---9-9-9---|-5-5-5---5-5-5---|
G|-5-5-5-5-5-5-5-5-|-2-2-2-2-3-5-5-5-|-7-7-7---7-7-7---|-3-3-3---3-3-3---|
C|-5-5-5-5-5-5-5-5-|-----------------|-----------------|-----------------|


[Verse 2]

D|---------------|---------------------|
A|---------------|---------------------|
F|---------------|-7-7-7-7--4-4-4-4--4-|
C|-5-5-5-5-5---5-|---------------------|
G|-----------7---|---------------------|
C|---------------|---------------------|


[Bridge]

D|-------------|----------|-------------|----------|
A|-------------|----------|-------------|----------|
F|-5-5---5-----|------4-4-|-------------|------4-4-|
C|-5-5---5-5-2-|-2-2--4-4-|-5-5---2-5-2-|-5-5--4-4-|
G|-3-3---3-5-2-|-2-2--2-2-|-5-5---2-5-2-|-5-5--2-2-|
C|---------5-2-|-2-2------|-5-5---2-5-2-|-5-5------|

D|-----------------|-----------------|-----------------|-----------------|
A|-----------------|-----------------|-----------------|-----------------|
F|-5-5-5-5-5-5-5-9-|-9-9-9-9-9-9-9-9-|-----------------|-----------------|
C|-5-5-5-5-5-5-5-9-|-9-9-9-9-9-9-9-9-|-5-5-5-5-5-2-2-5-|-5-5-5-5-5-5-5-5-|
G|-3-3-3-3-3-3-3-7-|-7-7-7-7-7-7-7-7-|-5-5-5-5-5-2-2-5-|-5-5-5-5-5-5-5-5-|
C|-----------------|-----------------|-5-5-5-5-5-2-2-5-|-5-5-5-5-5-5-5-5-|


[Refrain]

D|-----------------|-----------------|-----------------|-----------------|
A|-----------------|-----------------|-----------------|-----------------|
F|-----------------|-4-4-4-4-5-7-7-7-|-----------------|-4-4-4-4-5-7-7-7-|
C|-5-5-5-5-5-5-5-5-|-4-4-4-4-5-7-7-7-|-5-5-5-5-5-5-5-5-|-4-4-4-4-5-7-7-7-|
G|-5-5-5-5-5-5-5-5-|-2-2-2-2-3-5-5-5-|-5-5-5-5-5-5-5-5-|-2-2-2-2-3-5-5-5-|
C|-5-5-5-5-5-5-5-5-|-----------------|-5-5-5-5-5-5-5-5-|-----------------|

D|-----------------|-----------------|-----------------|-----------------|
A|-----------------|-----------------|-----------------|-----------------|
F|-----------------|-4-4-4-4-5-7-7-7-|-9-9-9---9-9-9---|-5-5-5---5-5-5---|
C|-5-5-5-5-5-5-5-5-|-4-4-4-4-5-7-7-7-|-9-9-9---9-9-9---|-5-5-5---5-5-5---|
G|-5-5-5-5-5-5-5-5-|-2-2-2-2-3-5-5-5-|-7-7-7---7-7-7---|-3-3-3---3-3-3---|
C|-5-5-5-5-5-5-5-5-|-----------------|-----------------|-----------------|

D|-----------------|-----------------|-----------------|-----------------|
A|-----------------|-----------------|-----------------|-----------------|
F|-----------------|-4-4-4-4-5-7-7-7-|-----------------|-4-4-4-4-5-7-7-7-|
C|-5-5-5-5-5-5-5-5-|-4-4-4-4-5-7-7-7-|-5-5-5-5-5-5-5-5-|-4-4-4-4-5-7-7-7-|
G|-5-5-5-5-5-5-5-5-|-2-2-2-2-3-5-5-5-|-5-5-5-5-5-5-5-5-|-2-2-2-2-3-5-5-5-|
C|-5-5-5-5-5-5-5-5-|-----------------|-5-5-5-5-5-5-5-5-|-----------------|

D|-----------------|-----------------|-----------------|-----------------|
A|-----------------|-----------------|-----------------|-----------------|
F|-----------------|-4-4-4-4-5-7-7-7-|-9-9-9---9-9-9---|-5-5-5---5-5-5---|
C|-5-5-5-5-5-5-5-5-|-4-4-4-4-5-7-7-7-|-9-9-9---9-9-9---|-5-5-5---5-5-5---|
G|-5-5-5-5-5-5-5-5-|-2-2-2-2-3-5-5-5-|-7-7-7---7-7-7---|-3-3-3---3-3-3---|
C|-5-5-5-5-5-5-5-5-|-----------------|-----------------|-----------------|


[Interlude]

D|---------------|-------------------|
A|---------------|-------------------|
F|---------------|-------------------|
C|---------------|-------------------|
G|---------------|-----2-2-2-3-3-3---|
C|-2-2-2-0-0-0-5-5-|-5-------------0-|

D|---------------|-------------------|
A|---------------|-------------------|
F|---------------|-------------------|
C|---------------|-----x-x-x-8\0-----|
G|---------------|-----x-x-x-8\0-----|
C|-2-2-2-0-0-0-5-5-|-5-x-x-x-8\0-----|

D|-----------------|-----------------|
A|-----------------|-----------------|
F|-----------------|---4-5-4-5-5-5-5-|
C|-2-2-2-0-0-0-5-5-|-5-4-5-4-5-5-5-5-|
G|-2-2-2-0-0-0-5-5-|-5-2-3-2-3-3-3-3-| 5x
C|-2-2-2-0-0-0-5-5-|-5---------------| 

D|-----------------|-3---------------|
A|-----------------|-3---------------|
F|-9-7-5--|-4-2-4--|-5---------------|
C|-9-7-5--|-4-2-4--|-5---------------|
G|-7-5-3--|-2-0-2--|-3---------------|
C|-----------------|-----------------|

D|---------|---------|---------|---------|
A|---------|---------|---------|---------|
F|---0---0-|---0---0-|---0---0-|---0---0-|
C|---------|-2---2---|---------|---------| 3x
G|-3---3---|---------|---------|---------|
C|---------|---------|-5---5---|-5---5---|

D|---------|---------|---------|---------|
A|---------|---------|---------|---------|
F|---0---0-|---0---0-|---0---0-|---0---0-|
C|---------|-2---2---|---------|---------|
G|-3---3---|---------|---------|---------|
C|---------|---------|-5---5---|-5---5---|

D|---------|---------|
A|---------|---------|
F|---0-----|--0------|
C|---------|---------|
G|---------|---------|
C|---------|---------|


[Outro] 

D|------------|---------------|
A|------------|---------------|
F|------------|-------6-7-6-7-|
C|-5--5-0-2-5-|-5-2-0-6-7-6-7-| 3x
G|-5--5-0-2-5-|-5-2-0-4-5-4-5-|
C|-5--5-0-2-5-|-5-2-0---------|

D|------------|---------------|
A|------------|---------------|
F|------------|-------6-7-6-7-|
C|-5--5-0-2-5-|-5-2-0-6-7-6-7-| 3x
G|-5--5-0-2-5-|-5-2-0-4-5-4-5-|
C|-5--5-0-2-5-|-5-2-0---------|

D|-----------------|-----------------|
A|-----------------|-----------------|
F|-9-9-9---9-9-9---|-5-5-5---5-5-5---|
C|-9-9-9---9-9-9---|-5-5-5---5-5-5---|
G|-7-7-7---7-7-7---|-3-3-3---3-3-3---|
C|-----------------|-----------------|

D|-------------|----------|-------------|----------|
A|-------------|----------|-------------|----------|
F|-------------|----------|-------------|----------|
C|-5-5---2-5-2-|-9-9--4-4-|-5-5---2-5-2-|-9-9--7-7-| 2x
G|-5-5---2-5-2-|-9-9--4-4-|-5-5---2-5-2-|-9-9--7-7-|
C|-5-5---2-5-2-|-9-9--4-4-|-5-5---2-5-2-|-9-9--7-7-|

D|-------|
A|-------|
F|-------|
C|-5-5---|
G|-5-5---|
C|-5-5---|

D|------------|---------------|
A|------------|---------------|
F|------------|-------6-7-6-7-|
C|-5--5-0-2-5-|-5-2-0-6-7-6-7-| 3x
G|-5--5-0-2-5-|-5-2-0-4-5-4-5-|
C|-5--5-0-2-5-|-5-2-0---------|

D|------------|---------------|
A|------------|---------------|
F|------------|-------6-7-6-7-|
C|-5--5-0-2-5-|-5-2-0-6-7-6-7-| 3x
G|-5--5-0-2-5-|-5-2-0-4-5-4-5-|
C|-5--5-0-2-5-|-5-2-0---------|

D|-----------------|-----------------|
A|-----------------|-----------------|
F|-9-9-9---9-9-9---|-5-5-5---5-5-5---|
C|-9-9-9---9-9-9---|-5-5-5---5-5-5---|
G|-7-7-7---7-7-7---|-3-3-3---3-3-3---|
C|-----------------|-----------------|

D|-------------|----------|-------------|----------|
A|-------------|----------|-------------|----------|
F|-------------|----------|-------------|----------|
C|-5-5---2-5-2-|-9-9--4-4-|-5-5---2-5-2-|-9-9--7-7-| 2x
G|-5-5---2-5-2-|-9-9--4-4-|-5-5---2-5-2-|-9-9--7-7-|
C|-5-5---2-5-2-|-9-9--4-4-|-5-5---2-5-2-|-9-9--7-7-|

D|-------|
A|-------|
F|-------|
C|-5-5---|
G|-5-5---|
C|-5-5---|            
Submit corrections

↑ Back to top | Tablatures and chords for acoustic guitar and electric guitar, ukulele, drums are parodies/interpretations of the original songs. You may use it for private study, scholarship, research or language learning purposes only