» » »

Skillet - Feel Invincible Tabs

Artists:  A B C D E F G H I J K L M N O P Q R S T U V W X Y Z # 

Feel Invincible Tabs

(ver. 2) Click to play this song!
Skillet
 Rating:
4.3/5 (21 vote)

 Feel Invincible lessons Tabs too difficult? Try these video lessons and learn fast
 
                [Intro]
D|----------------------|---------------------|---------------------|---------------------|
A|----------------------|---------------------|---------------------|---------------------|
F|----------------------|---------------------|---------------------|---------------------|
C|---0---0---x-x-x-x----|--0---0---x-x-x-x----|--0---0---x-x-x-x----|--0---0---x-x-x-x----|
G|---0---0---x-x-x-x----|--0---0---x-x-x-x----|--0---0---x-x-x-x----|--0---0---x-x-x-x----|
C|---0---0---x-x-x-x----|--0---0---x-x-x-x----|--0---0---x-x-x-x----|--0---0---x-x-x-x----|

[Verse 1]
D|------11b---------------|------11b----22---20-------|-------------22----20----|---------------|
A|------13b---------------|------13b-------------22---|--20----15---------------|-22---20---15--|
F|------------------------|---------------------------|-------------------------|---------------|
C|------------------------|---------------------------|-------------------------|---------------|
G|------------------------|---------------------------|-------------------------|---------------|
C|------------------------|---------------------------|-------------------------|---------------|

[Chorus]
D|--------------------|-------------------|-------------------|-------------------|
A|--------------------|-------------------|-------------------|-------------------|
F|--------------------|-------------------|--5---5---5---5----|-------------------| x2
C|---0---0---0---0----|--3---3---3---3----|--5---5---5---5----|--5---5---5---5----|
G|---0---0---0---0----|--3---3---3---3----|--3---3---3---3----|--5---5---5---5----|
C|---0---0---0---0----|--3---3---3---3----|-------------------|--5---5---5---5----|

D|--------------------|-------------------|
A|--------------------|-------------------|
F|---3---3---3---3----|-------------------|x1
C|---3---3---3---3----|--5---5------------|
G|---1---1---1---1----|--5---5------------|
C|--------------------|--5---5------------|

[Pre-Chorus]
D|----------------------|---------------------|---------------------|---------------------|
A|----------------------|---------------------|---------------------|---------------------|
F|----------------------|---------------------|---------------------|---------------------|
C|---0---0---x-x-x-x----|--0---0---x-x-x-x----|--0---0---x-x-x-x----|--0---0---x-x-x-x----|
G|---0---0---x-x-x-x----|--0---0---x-x-x-x----|--0---0---x-x-x-x----|--0---0---x-x-x-x----|
C|---0---0---x-x-x-x----|--0---0---x-x-x-x----|--0---0---x-x-x-x----|--0---0---x-x-x-x----|

[Verse 2]
D|------11b----------------|------11b----22---20--------|-------------22----20----|---------------|
A|------13b----------------|------13b-------------22----|--20----15---------------|-22---20---15--|
F|------------------------|---------------------------|---------------------|---------------------|
C|------------------------|---------------------------|---------------------|---------------------|
G|------------------------|---------------------------|---------------------|---------------------|
C|------------------------|---------------------------|---------------------|---------------------|

[Chorus]
D|--------------------|-------------------|-------------------|-------------------|
A|--------------------|-------------------|-------------------|-------------------|
F|--------------------|-------------------|--5---5---5---5----|-------------------| x2
C|---0---0---0---0----|--3---3---3---3----|--5---5---5---5----|--5---5---5---5----|
G|---0---0---0---0----|--3---3---3---3----|--3---3---3---3----|--5---5---5---5----|
C|---0---0---0---0----|--3---3---3---3----|-------------------|--5---5---5---5----|

D|--------------------|-------------------|
A|--------------------|-------------------|
F|---3---3---3---3----|-------------------|x1
C|---3---3---3---3----|--5---5------------|
G|---1---1---1---1----|--5---5------------|
C|--------------------|--5---5------------|

[Solo]
D|-------------------------------------------------------12------13-----15---13--12-10~---|
A|--10----------10-10---8--6---10------10--10---8---6---------13-----13-------------------|
F|--------7-----------------------7---------------------------------|---------------------|
C|----------------------|---------------------|---------------------|---------------------|
G|----------------------|---------------------|---------------------|---------------------|
C|----------------------|---------------------|---------------------|---------------------|

D|---12------12--13--12--10~----17-17-17-|---------------------|---------------------------------|
A|-------12---------------|--------------18-18-18--15-15-15-18-18-18--15-15-15-------------------|
F|----------------------|---------------------|---------------------|----------15-15-15----------|
C|----------------------|---------------------|---------------------|-------------------15-15-15~|
G|----------------------|---------------------|---------------------|----------------------------|
C|----------------------|---------------------|---------------------|----------------------------|

[Bridge]
D|-17--13-17--13-18--13-17--13-17--13-17---13-18-20-17|-17--13-17--13-18--13-17--13-----|
A|---15-----15-----15-----15-----15------15-----------|---15-----15-----15-----15-------|
F|----------------------------------------------------|---------------------------------|
C|----------------------------------------------------|---------------------------------|
G|----------------------------------------------------|---------------------------------|
C|----------------------------------------------------|---------------------------------|

D|-17--13-15--12-15------12-13-10-17--13-17--13-18--13-17--13--------------------------|
A|---15-----13------10-13-----------15-----15-----15-----15----------------------------|
F|-------------------------------------------------------------------------------------|
C|-------------------------------------------------------------------------------------|
G|-------------------------------------------------------------------------------------|
C|-------------------------------------------------------------------------------------|

D|-17--13-17--13-18--13-18-20-17|-17--13-17---13-18--13-17--13-17--13-15--12-15-----12-13-10~|
A|---15-----15-----15-----------|---15-----15------15-----15-----15-----13-----10-13---------|
F|------------------------------|------------------------------------------------------------|
C|------------------------------|------------------------------------------------------------|
G|------------------------------|------------------------------------------------------------|
C|------------------------------|------------------------------------------------------------|

[Chorus]
D|--------------------|-------------------|-------------------|-------------------|
A|--------------------|-------------------|-------------------|-------------------|
F|--------------------|-------------------|--5---5---5---5----|-------------------| x5
C|---0---0---0---0----|--3---3---3---3----|--5---5---5---5----|--5---5---5---5----|
G|---0---0---0---0----|--3---3---3---3----|--3---3---3---3----|--5---5---5---5----|
C|---0---0---0---0----|--3---3---3---3----|-------------------|--5---5---5---5----|

D|--------------------|-------------------|
A|--------------------|-------------------|
F|---3---3---3---3----|-------------------|x1
C|---3---3---3---3----|--5---5------------|
G|---1---1---1---1----|--5---5------------|
C|--------------------|--5---5------------|

[Outro]
D|----------------------|---------------------|---------------------|---------------------|
A|----------------------|---------------------|---------------------|---------------------|
F|----------------------|---------------------|---------------------|---------------------|
C|---0---0---x-x-x-x----|--0---0---x-x-x-x----|--0---0---x-x-x-x----|--0---0---x-x-x-x----|
G|---0---0---x-x-x-x----|--0---0---x-x-x-x----|--0---0---x-x-x-x----|--0---0---x-x-x-x----|
C|---0---0---x-x-x-x----|--0---0---x-x-x-x----|--0---0---x-x-x-x----|--0---0---x-x-x-x----|

            
Submit corrections


        Feel Invincible lessons Hard to play? Try these video lessons and learn fast Feel Invincible lessons
        
↑ Back to top | Tablatures and chords for acoustic guitar and electric guitar, ukulele, drums are parodies/interpretations of the original songs. You may use it for private study, scholarship, research or language learning purposes only