» » »

Skids - Vanguards Crusade Tabs

Artists:  A B C D E F G H I J K L M N O P Q R S T U V W X Y Z # 

Vanguards Crusade Tabs

(ver. 1) Click to play this song!
Skids
 Rating:
4.6/5 (20 votes)

 Vanguards Crusade  lessons Tabs too difficult? Try these video lessons and learn fast
 
                Tuning:E Standard

e|---------------------------------------------------------|
B|-----------------------------------11--------------------|
G|---------------5-7-5h7----10h12-10---7-7h8---------------|
D|-5-7-8-5h7--8---------8-8--------------------------------|
A|-5--------8-8-------------------------------10/2---------|
E|----------------------------------------------------x2---|

e|---------------------------------------------------------|
B|---------------------------------------------------------|
G|-10-------10-------10---------------10-------10----------|
D|-10-8-8-8-10-8-8-8-10-6-6-6--7\6-6--10-8-8-8-10-8-8-8----|
A|-8--8-8-8-8--8-8-8-8--6-6-6--7\6-6--8--8-8-8-8--8-8-8----|
E|----6-6-6----6-6-6----8-8-8--5\8-8-----6-6-6----6-6-6----|

e|---------------------------------------------------------|
B|---------------------------------------------------------|
G|---8-8-8-10-10----10--------10-------10------------------|
D|-8-8-8-8-10-10-8--10--8-8-8-10-8-8-8-10-8-8-8--7/8-8-7/8-|
A|-8-6-6-6-8--8--8--8---8-8-8-8--8-8-8-8--8-8-8--7/8-8-7/8-|
E|-6-------------6------6-6-6----6-6-6----6-6-6--5/6-6-5/6-|

e|---------------------------------------------------------|
B|---------------------------------------------------------|
G|-10-------10-------8-8-10-10-----------------------------|
D|-10-8-8-8-10-8-8-8-8-8-10-10-8---------------------------|
A|-8--8-8-8-8--8-8-8-6-6--8--8-8---------------------------|
E|----6-6-6----6-6-6-----------6---------------------------|

e|---------------------------------------------------------|
B|---------------------------------------------------------|
G|-x-8-8-8-8-8-8-8-8-7-7-7-7-7-7-7-7-5-5-5-10-10-10-10-----|
D|-x-8-8-8-8-8-8-8-8-7-7-7-7-7-7-7-7-5-5-5-10-10-10-10-----|
A|-x-6-6-6-6-6-6-6-6-5-5-5-5-5-5-5-5-3-3-3-8--8--8--8------|
E|---------------------------------------------------------|

e|---------------------------------------------------------|
B|---------------------------------------------------------|
G|---------------------------------------------------------|
D|-8-8-8-8-8-8-8-8-----------------------------------------|
A|-8-8-8-8-8-8-8-8-----------------------------------------|
E|-6-6-6-6-6-6-6-6-x2--------------------------------------|            
Submit corrections


        Vanguards Crusade  lessons Hard to play? Try these video lessons and learn fast Vanguards Crusade  lessons
        
↑ Back to top | Tablatures and chords for acoustic guitar and electric guitar, ukulele, drums are parodies/interpretations of the original songs. You may use it for private study, scholarship, research or language learning purposes only