» » »

Skids - Out Of Town Tabs

Artists:  A B C D E F G H I J K L M N O P Q R S T U V W X Y Z # 

Out Of Town Tabs

(ver. 1) Click to play this song!
Skids
 Rating:
2.7/5 (27 votes)

 Out Of Town  lessons Tabs too difficult? Try these video lessons and learn fast
 
                Tuning: E Standard

e|----------------------------------------------------------------12-12-12-10----------|
B|----------------------------------------------------------------------------12-10----|
G|---9----9--11----11--12-----------------------------------------------------------12-|
D|-----10-------12-----------12-10-9----10-5-12-12-12-12-10-9-9-9----------------------|
A|-----------------------10----------10------------------------------------------------|
E|-------------------------------------------------------------------------------------|

e|-------------------------------------------------------------12-10b11----------------|
B|-------------------------------------------------------------------------------------|
G|---9----9-11----11-12----------------------------------------------------------------|
D|-----10------12----------12-10-9----10-5-12-12-12-12-10-9----------------------------|
A|----------------------10---------10-----------------------10-------------------------|
E|-------------------------------------------------------------------------------------|

e|-------------------------------------------------------------------------------------|
B|-------------------------------------------------------------------------------------|
G|---x---7-7-7-7-7-7-----------------x-5-5-5-5-5-5-------------------------------------|
D|---x---7-7-7-7-7-7--x-7-7----------x-5-5-5-5-5-5---x-5-5-5-5-5-5---------------------|
A|---x-5-5-5-5-5-5----x-7-7----------x-3-3-3-3-3-3---x-5-5-5-5-5-5---------------------|
E|--------------------x-5-5---x4---------------------x-3-3-3-3-3-3--x2-----------------|

e|-------------------------------------------------------------------------------------|
B|--8-5-8--8-8-8-8-8-7-5-------------8-7--8-7--8-7--8-7--8-7---------------------------|
G|-----------------------7-4-5-7-4-7-----7---7----7----7----7--------------------------|
D|-------------------------------------------------------------------------------------|
A|-------------------------------------------------------------------------------------|
E|-------------------------------------------------------------------------------------|

e|-------------------------------------------------------------------------------------|
B|----13b14-11-------------------------------------------------------------------------|
G|---------------------------------12----12----14----14--------------------------------|
D|------------------------------10----10----12----12-----------------------------------|
A|-------------8H10-8H10-8H10-6--------------------------------------------------------|
E|-Solo--------------------------------------------------------------------------------|

e|------------------8-8-11--11--11--11--11-----8----11-11-11-11-15-15-15---------------|
B|-------15--13b14--8-8-11--11--11--11--11-x12-8-x8-11-11-11-11-15-15-15---------------|
G|-------------------------------------------------------------------------------------|
D|-------------------------------------------------------------------------------------|
A|--10-8-------------------------------------------------------------------------------|
E|-------------------------------------------------------------------------------------|            
Submit corrections


        Out Of Town  lessons Hard to play? Try these video lessons and learn fast Out Of Town  lessons
        
↑ Back to top | Tablatures and chords for acoustic guitar and electric guitar, ukulele, drums are parodies/interpretations of the original songs. You may use it for private study, scholarship, research or language learning purposes only