» » »

Skids - Masquerade Tabs

Artists:  A B C D E F G H I J K L M N O P Q R S T U V W X Y Z # 

Masquerade Tabs

(ver. 1) Click to play this song!
Skids
 Rating:
4.3/5 (12 votes)

 Masquerade lessons Tabs too difficult? Try these video lessons and learn fast
 
                [Intro]

e|---------------------------------------------------------------------------|
B|-----------6--6------------------------------------------------------------|
G|----5h7p5--------------5h7p5------7----5-----------------------------------|
D|----------------------------------7----5-----------------------------------|
A|8-----------------8---------------5----3-----------------------------------|
E|---------------------------------------------------------------------------|X4


[Verse]

e|---------------------------------------------------------------------------|
B|---------------------------------------------------------------------------|
G|2----------------2---------7--------5--------------------------------------|
D|3----------------3---------7--------5--------------------------------------|
A|3-3-3-3-3--3-3-3-3-3-3-3---5--------3--------------------------------------|
E|1-1-1-1-1--1-1-1-1-1-1-1---------------------------------------------------|X4
  F (pm)           F (pm)    D5       C5


[Chorus]

e|---------------------------------------------------------------------------|
B|---------------------------------------------------------------------------|
G|---------------7------2----------------------------------------------------|
D|5-------7--8---7---5--3----------------------------------------------------|
A|5----------8---5------3----------------------------------------------------|
E|3----------6----------1----------------------------------------------------
  G5      A  Bb  D5     F
e|---------------------------------------------------------------------------|
B|-------------------7-------------------------------------------------------|
G|3-2----------------7--5--2-----------5-------------------------------------|
D|----5-------7--8---5-----3-----------5-------------------------------------|
A|----5----------8---------3------2/3----------------------------------------|
E|----3----------6---------1-------------------------------------------------|
      G5      A  Bb  D5    F           C

e|---------------------------------------------------------------------------|
B|---------------------------------------------------------------------------|
G|---------------7------2----------------------------------------------------|
D|5-------7--8---7---5--3----------------------------------------------------|
A|5----------8---5------3----------------------------------------------------|
E|3----------6----------1----------------------------------------------------
  G5      A  Bb  D5     F
e|-----------------------------8---------------------------------------------|
B|-------------------7-------------------------------------------------------|
G|3-2----------------7----5-----------5--------------------------------------|
D|----5-------7--8---5----------------5--------------------------------------|
A|----5----------8---------------2/3-----------------------------------------|
E|----3----------6-----------------------------------------------------------|
      G5      A  Bb  D5   F           C

[Solo]

e|-------------13---------------12-----------------------13-12--10-----------|
B|-----13--------------13----------------13--------11---------------13--10---|
G|-10------10------10-------10------10--------10-----------------------------|
D|---------------------------------------------------------------------------|
A|---------------------------------------------------------------------------|
E|---------------------------------------------------------------------------|

e|--------------10------------------------------------10---------------------|
B|------10--11------13-----------11--10------10--11--------13----------------|
G|-12-------------------10---------------12----------------------------------|
D|---------------------------------------------------------------------------|
A|---------------------------------------------------------------------------|
 
e|-11-11-11-10-10-10---------------------------------------------------------|
B|------------------12-12-12-10-10----------------5--------------------------|
G|---------------------------------12--10------------------------------------|
D|---------------------------------------------------------------------------|
A|------------------------------------------2/3------------------------------|
E|---------------------------------------------------------------------------|            
Submit corrections


        Masquerade lessons Hard to play? Try these video lessons and learn fast Masquerade lessons
        
↑ Back to top | Tablatures and chords for acoustic guitar and electric guitar, ukulele, drums are parodies/interpretations of the original songs. You may use it for private study, scholarship, research or language learning purposes only