Home » S » Skid Row »

Skid Row - 18 & Life Bass

Artists:  A B C D E F G H I J K L M N O P Q R S T U V W X Y Z # 

18 & Life Bass

(ver. 1) Click to play this song!
Skid Row
Album Skid Row


Intro X1
|---------------------------------------|
|---------------------------------------|
|4----4h6-4----2-4-----2/11-15----11\---|
|------------------------------16-------|

Verse 1 P.1 X3
|--------------------------------|
|--------------------------------|
|4----4h6-4----2-4-6-4----4------|
|---------------------------5-4--|

Verse 1 P.2 X1(I play slap here, I think it sound cool, but its up to you)
|----------------------------------------------------------------|
|----------------------------------------------------------------|
|----------------------------------------------0-0-0-0-2-0-2-3-4-|
|5-5-5-5-5-5-4-2-2-2-2-2-2-0-2-4--4-4-4-4-4-0-4------------------|


Chorus pt.1
|--------------------------------------------------------|
|--------------------------------------------------------|
|4-4-2-0--0-2---------2-3-4--4-4-2-0--0-2--------0-2-3-4-|
|------------0--2-3-4--------------------0-2-3-4---------|
Chorus pt.2
|-------------------------------------------------------------|
|-------------------------------------------------------------|
|4-4-2-0--0-2---------2-3-4--4-4-2-0-----------------2-0-2-3-4|
|------------0--2-3-4----------------0--0-0-0--0-0-4----------|

Verse 2 P.1 X3
|-------------------------------------------|
|4--4-4--4-4--4-4---4--4-4------------------|
|-------------------------------------4-----|
|--------------------------2--------9\--5-4-|

Verse 2 P.2 X1 (Same as before, only if you want to)
|----------------------------------------------------------------|
|----------------------------------------------------------------|
|----------------------------------------------0-0-0-0-2-0-2-3-4-|
|5-5-5-5-5-5-4-2-2-2-2-2-2-0-2-4--4-4-4-4-4-0-4------------------|

Chorus X2
Repeat ending after, then:
Bridge P.1 X1
|---------------6---6---6--------|
|--------------6-6-6-6-6-6-------|
|4-444-444-444-------------8-7-6-|
|--------------------------------|

Bridge P.2 X1
|--------------------------------------------------------|
|--------------------------------------------------------|
|--------------------------------------0-0-0-0-2-0-2-3-4-|
|1--1-1-2-3-4-5--5-5-4-3-2-1--1-1-0-1-2------------------|

Continue Chorus to the End
            
Submit corrections

↑ Back to top | Tablatures and chords for acoustic guitar and electric guitar, ukulele, drums are parodies/interpretations of the original songs. You may use it for private study, scholarship, research or language learning purposes only